Song name
# A B C D E F G H I J K L M N O P Q R S T U V W X Y Z

Tiger Lou - You Cant Say No To Me tab

-----------------------------------------------------------------------------
	             YOU CAN'T SAY NO TO ME - Tiger Lou
-----------------------------------------------------------------------------
Tabbed by: MrMelody
E-mail: riderwherethetreesarelow@myspace.com

Tuning: Standard, capo 1st fret

Notes: Try fingerpicking.

B-Side of "Oh Horatio"

-----------------------------------------------------------------------------

Structure:

Intro
Verse 2x
1st Chorus
Intro
Verse 1x
2nd Chorus/Outro

It's always the same picking pattern, only the bass notes are varying.

-----------------------------------------------------------------------------

Intro

e|-------0-------------0-------------0-------------0-------|
B|-----2---(2)-------2---(2)-------2---(2)-------2---(2)---|
G|---4---------4---4---------4---4---------4---4---------4-|
D|---------------------------------------------------------|
A|-4-------------0-----------------------------------------|
E|-----------------------------0-------------0-------------|

e|-------0-------------0-------------0-------------0-------|
B|-----2---(2)-------2---(2)-------2---(2)-------2---(2)---|
G|---4---------4---4---------4---4---------4---4---------4-|
D|---------------------------------------------------------|
A|-4---------------------------0-------------0-------------|
E|---------------4-----------------------------------------|

e|-------0-------------0-------------0-------------0-------|
B|-----2---(2)-------2---(2)-------2---(2)-------2---(2)---|
G|---4---------4---4---------4---4---------4---4---------4-|
D|---------------------------------------------------------|
A|-4-------------0-----------------------------------------|
E|-----------------------------0-------------0-------------|
                                                                2x
e|-------0-------------0-------||--------0-------------0--------||
B|-----2---(2)-------2---(2)---||------2---(2)-------2---(2)----||
G|---4---------4---4---------4-||*---4---------4---4---------4-*||
D|-----------------------------||*-----------------------------*||
A|---------------0-------------||--2-------------2--------------||
E|-4---------------------------||-------------------------------||

1st Verse ("A precious kiss...")

e|-------0-------------0-------------0-------------0-------|
B|-----2---(2)-------2---(2)-------2---(2)-------2---(2)---|
G|---4---------4---4---------4---4---------4---4---------4-|
D|---------------------------------------------------------|
A|-4---------------------------0-------------0-------------|
E|---------------4-----------------------------------------|

e|-------0-------------0-------------0-------------0-------|
B|-----2---(2)-------2---(2)-------2---(2)-------2---(2)---|
G|---4---------4---4---------4---4---------4---4---------4-|
D|---------------------------------------------------------|
A|-4-------------2-------------0-------------0-------------|
E|---------------------------------------------------------|

e|-------0-------------0-------------0-------------0-------|
B|-----2---(2)-------2---(2)-------2---(2)-------2---(2)---|
G|---4---------4---4---------4---4---------4---4---------4-|
D|---------------------------------------------------------|
A|-4---------------------------0-------------0-------------|
E|---------------4-----------------------------------------|

e|-------0-------------0-------------0-------------0-------|
B|-----2---(2)-------2---(2)-------2---(2)-------2---(2)---|
G|---4---------4---4---------4---4---------4---4---------4-|
D|---------------------------------------------------------|
A|-2-------------2-------------2-------------2-------------|
E|---------------------------------------------------------|

1st Chorus ("But I'll wait ...")

e|-------0-------------0-------------0-------------0-------|
B|-----2---(2)-------2---(2)-------2---(2)-------2---(2)---|
G|---4---------4---4---------4---4---------4---4---------4-|
D|---------------------------------------------------------|
A|-0-------------0-------------2-------------2-------------|
E|---------------------------------------------------------|

e|-------0-------------0-------------0-------------0-------|
B|-----2---(2)-------2---(2)-------2---(2)-------2---(2)---|
G|---4---------4---4---------4---4---------4---4---------4-|
D|---------------------------------------------------------|
A|-----------------------------0-------------0-------------|
E|-4-------------4-----------------------------------------|

e|-------0-------------0-------------0-------------0-------|
B|-----2---(2)-------2---(2)-------2---(2)-------2---(2)---|
G|---4---------4---4---------4---4---------4---4---------4-|
D|---------------------------------------------------------|
A|-0-------------0-------------2-------------2-------------|
E|---------------------------------------------------------|

e|-------0-------------0-------------0-------------0-------|
B|-----2---(2)-------2---(2)-------2---(2)-------2---(2)---|
G|---4---------4---4---------4---4---------4---4---------4-|
D|---------------------------------------------------------|
A|-4-------------2-------------0-------------0-------------|
E|---------------------------------------------------------|

e|-------0-------------0-------|
B|-----2---(2)-------2---(2)---|
G|---4---------4---4---------4-|
D|-----------------------------|
A|-0-------------2-------------|
E|-----------------------------|


2nd Chorus/Outro

e||--------0-------------0-------------0-------------0-------|
B||------2---(2)-------2---(2)-------2---(2)-------2---(2)---|
G||*---4---------4---4---------4---4---------4---4---------4-|
D||*---------------------------------------------------------|
A||--0-------------0-------------2-------------2-------------|
E||----------------------------------------------------------|
                                                            2x
e|-------0-------------0-------------0-------------0--------||
B|-----2---(2)-------2---(2)-------2---(2)-------2---(2)----||
G|---4---------4---4---------4---4---------4---4---------4-*||
D|---------------------------------------------------------*||
A|-----------------------------0-------------0--------------||
E|-4-------------4------------------------------------------||

e|-------0-------------0-------------0-------------0-------|
B|-----2---(2)-------2---(2)-------2---(2)-------2---(2)---|
G|---4---------4---4---------4---4---------4---4---------4-|
D|---------------------------------------------------------|
A|-0-------------0-------------2-------------2-------------|
E|---------------------------------------------------------|
                                                                2x
e|-------0-------------0-------||--------0-------------0--------||
B|-----2---(2)-------2---(2)---||------2---(2)-------2---(2)----||
G|---4---------4---4---------4-||*---4---------4---4---------4-*||
D|-----------------------------||*-----------------------------*||
A|-4-------------2-------------||--0-------------0--------------||
E|-----------------------------||-------------------------------||

e|-------0-------------0-------------0-------------0-------|
B|-----2---(2)-------2---(2)-------2---(2)-------2---(2)---|
G|---4---------4---4---------4---4---------4---4---------4-|
D|---------------------------------------------------------|
A|-4-------------2-------------0-------------0-------------|
E|---------------------------------------------------------|

e|-------0-------------0---------||
B|-----2---(2)-------2---(2)-----||
G|---4---------4---4---------4---||
D|-------------------------------||
A|-0-------------2---------------||
E|-----------------------------0-||


Lyrics:
A precious kiss from your lucious lips is more than any man could stand
A glimpse underneath your silverskirt is a miracle
The scent of your skin, your ivory skin is the thing one would
Kill a man in an instant to get close to

But I'll wait for the day you will see
You can't say no to me

One more day is a life span that I would give anything
To be the one that tears of your wings

But I'll wait for the day you will see
You can't say no to me
And everything is gonna be ok
It's gonna be ok

************************************

| ^   pickstroke down
| v   pickstroke up
| /   slide up
| \   slide down
| h   hammer-on
| p   pull-off
| <>  natural harmonic
| ()  ghost note
| x   Mute note

************************************
Tap to rate this tab
 
# A B C D E F G H I J K L M N O P Q R S T U V W X Y Z