Song name
# A B C D E F G H I J K L M N O P Q R S T U V W X Y Z

Tiger Lou - The Final And Last Boarding Call tab

Tiger Lou's song The Final and Last Boarding Call

Capo 1st fret

-----4-----4-----0-----0---|
----5-5---5-5---0-0---0-0--|
---4---4-4---4-2---2-2---2-|       (x6)
---------------------------|
--------------4-----4------|
--0-----0------------------|


Refr:
-----4-----4-----0-----2-----4-----4-----0-----2-----2----|
----5-5---5-5---0-0---0-0---5-5---5-5---0-0---0-0---0-0---|
---4---4-4---4-2---2-2---2-4---4-4---4-2---2-2---2-2---2--|
----------------------------------------------------------|
--0-----0-----4-----2-----0-----0-----4-----2-----2-------|
----------------------------------------------------------|


-----0------------|
----0-0---0----0--|
---2---2-2----2---|
------------------|
--0-----0--0p2----|
------------------|
Tap to rate this tab
 
# A B C D E F G H I J K L M N O P Q R S T U V W X Y Z