Guitaretab - guitar tabs
Song name
# A B C D E F G H I J K L M N O P Q R S T U V W X Y Z

Tiger Lou - Albino Apparel tab

Song: Albino Apparel
Artist/Band: Tiger Lou
Album: The Loyal
Tabbed by: Niclas Forsell
Email: niclas_forsell@hotmail.com


Everything sounds alright to me, but if there is something that sounds wrong to you, let 
know! If you have any requests email them
to med and I'll see what I can do.
Listen to the song to figure out how everything is played, I'm not going to spell it all 
for you...use your ears!
Great song by the way! It's a shame there isn't more Tiger Lou tabs online, thats the 
I took the time to tab this song for you all!
so don't steel it...ask me me if you want to use it on your site.

Intro/verse
e|--3-3--x--x------3-3--x-x------1-x-x----|
B|--4-4--x--x------3-3--x-x------1-x-x----|
G|--5-5--x--x-x4---3-3--x-x-x3---1-x-x-x1-|
D|--5-5--x--x------5-5--x-x------3-x-x----|
A|--3-3--x--x------5-5--x-x------3-x-x----|
E|----------------------------------------|


Chorus
[ Tab from: http://www.guitaretab.com/t/tiger-lou/76882.html ]
e|-----15--15--15---------16--16--16------------------------------------------|
B|-13----13--13--13---16----16--16--16-------16--16--16---------15---15--15---|
G|---------------------------------------15----15--15--15---12----12---12--12-|
D|----------------------------------------------------------------------------|
A|----------------------------------------------------------------------------|
E|----------------------------------------------------------------------------|

e|-----15--15--15---------16--16--16---------18--18--18---------18--18--18-----|
B|-13----13--13--13---16----16--16--16---16----16--16--16---16----16--16--16---|
G|-----------------------------------------------------------------------------|
D|-----------------------------------------------------------------------------|
A|-----------------------------------------------------------------------------|
E|-----------------------------------------------------------------------------|

Bridge

Played quietly. I use my thumb instead of a plectrum when I play this part...
e|-------------------|
B|--1------4------3--|
G|--1------5------4--|
D|--3------6------5--| x2
A|--3------6------5--|
E|--1------4------3--|

Played just as in the intro/verse but ends on a downstoke
e|--3-3--x--x-----3--|
B|--4-4--x--x-----4--|
G|--5-5--x--x-x6--5--|
D|--5-5--x--x-----5--|
A|--3-3--x--x-----3--|
E|-------------------|
Related for Albino Apparel tab
Advertisement will be closed in 10 seconds