Guitaretab - guitar tabs
Song name
# A B C D E F G H I J K L M N O P Q R S T U V W X Y Z

Tiger Lou - You Cant Say No To Me tab

Tiger Lou - You can't say no to me

Capo 1st fret

Intro:
|-------0-----|-------0-----|-------0--------|-------0--------|
|-----0---0---|-----0---0---|-----0---0------|-----0---0------|
|---1-------1-|---1-------1-|---1-------1----|---1-------1----|
|-------------|-------------|----------------|----------------|
|-4-----------|-0-----------|----------------|----------------|
|-------------|-------------|-0--------------|-0--------------|



|-------0-----|-------0-----|-------0--------|-------0--------|
|-----0---0---|-----0---0---|-----0---0------|-----0---0------|
|---1-------1-|---1-------1-|---1-------1----|---1-------1----|
|-------------|-------------|----------------|----------------|
|-4-----------|-------------|-0--------------|-0--------------|
|-------------|-4-----------|----------------|----------------|



|-------0-----|-------0-----|-------0--------|-------0--------|
|-----0---0---|-----0---0---|-----0---0------|-----0---0------|
|---1-------1-|---1-------1-|---1-------1----|---1-------1----|
|-------------|-------------|----------------|----------------|
|-4-----------|-0-----------|----------------|----------------|
|-------------|-------------|-0--------------|-0--------------|



|-------0-----|-------0-----|-------0--------|-------0--------|
|-----0---0---|-----0---0---|-----0---0------|-----0---0------|
|---1-------1-|---1-------1-|---1-------1----|---1-------1----|
|-------------|-------------|----------------|----------------|
|-------------|-0-----------|-2--------------|-2--------------|
|-4-----------|-------------|----------------|----------------|


|-------0-----|-------0-----|
|-----0---0---|-----0---0---|
|---1-------1-|---1-------1-|
|-------------|-------------|
|-2-----------|-2-----------|
|-------------|-------------|


Verse:
|-------0-----|-------0-----|-------0--------|-------0--------|
|-----0---0---|-----0---0---|-----0---0------|-----0---0------|
|---1-------1-|---1-------1-|---1-------1----|---1-------1----|
|-------------|-------------|----------------|----------------|
|-4-----------|-------------|-0--------------|-0--------------|
|-------------|-4-----------|----------------|----------------|


|-------0-----|-------0-----|-------0--------|-------0--------|
|-----0---0---|-----0---0---|-----0---0------|-----0---0------|
|---1-------1-|---1-------1-|---1-------1----|---1-------1----|
|-------------|-------------|----------------|----------------|
|-4-----------|-0-----------|-2--------------|-2--------------|
|-------------|-------------|----------------|----------------|


|-------0-----|-------0-----|-------0--------|-------0--------|
|-----0---0---|-----0---0---|-----0---0------|-----0---0------|
|---1-------1-|---1-------1-|---1-------1----|---1-------1----|
|-------------|-------------|----------------|----------------|
|-4-----------|-------------|-0--------------|-0--------------|
|-------------|-4-----------|----------------|----------------|


|-------0-----|-------0-----|-------0--------|-------0--------|
|-----0---0---|-----0---0---|-----0---0------|-----0---0------|
|---1-------1-|---1-------1-|---1-------1----|---1-------1----|
|-------------|-------------|----------------|----------------|
|-2-----------|-2-----------|-2--------------|-2--------------|
|-------------|-------------|----------------|----------------|



|-------0-----|-------0-----|-------0--------|-------0--------|
|-----0---0---|-----0---0---|-----0---0------|-----0---0------|
|---1-------1-|---1-------1-|---1-------1----|---1-------1----|
|-------------|-------------|----------------|----------------|
|-4-----------|-------------|-0--------------|-0--------------|
|-------------|-4-----------|----------------|----------------|



|-------0-----|-------0-----|-------0--------|-------0--------|
|-----0---0---|-----0---0---|-----0---0------|-----0---0------|
|---1-------1-|---1-------1-|---1-------1----|---1-------1----|
|-------------|-------------|----------------|----------------|
|-4-----------|-2-----------|-0--------------|-0--------------|
|-------------|-------------|----------------|----------------|


[ Tab from: http://www.guitaretab.com/t/tiger-lou/87026.html ]
|-------0-----|-------0-----|-------0--------|-------0--------|
|-----0---0---|-----0---0---|-----0---0------|-----0---0------|
|---1-------1-|---1-------1-|---1-------1----|---1-------1----|
|-------------|-------------|----------------|----------------|
|-4-----------|-------------|-0--------------|-0--------------|
|-------------|-4-----------|----------------|----------------|



|-------0-----|-------0-----|-------0--------|-------0--------|
|-----0---0---|-----0---0---|-----0---0------|-----0---0------|
|---1-------1-|---1-------1-|---1-------1----|---1-------1----|
|-------------|-------------|----------------|----------------|
|-2-----------|-2-----------|-2--------------|-2--------------|
|-------------|-------------|----------------|----------------|


Chorus:

|-------0-----|-------0-----|-------0--------|-------0--------|
|-----0---0---|-----0---0---|-----0---0------|-----0---0------|
|---1-------1-|---1-------1-|---1-------1----|---1-------1----|
|-------------|-------------|----------------|----------------|
|-0-----------|-0-----------|-2--------------|-2--------------|
|-------------|-------------|----------------|----------------|



|-------0-----|-------0-----|-------0--------|-------0--------|
|-----0---0---|-----0---0---|-----0---0------|-----0---0------|
|---1-------1-|---1-------1-|---1-------1----|---1-------1----|
|-------------|-------------|----------------|----------------|
|-------------|-------------|-0--------------|-0--------------|
|-4-----------|-4-----------|----------------|----------------|


|-------0-----|-------0-----|-------0--------|-------0--------|
|-----0---0---|-----0---0---|-----0---0------|-----0---0------|
|---1-------1-|---1-------1-|---1-------1----|---1-------1----|
|-------------|-------------|----------------|----------------|
|-0-----------|-0-----------|-2--------------|-2--------------|
|-------------|-------------|----------------|----------------|


|-------0-----|-------0-----|-------0--------|-------0--------|
|-----0---0---|-----0---0---|-----0---0------|-----0---0------|
|---1-------1-|---1-------1-|---1-------1----|---1-------1----|
|-------------|-------------|----------------|----------------|
|-4-----------|-2-----------|-0--------------|-0--------------|
|-------------|-------------|----------------|----------------|


|-------0-----|-------0-----|-------0--------|-------0--------|
|-----0---0---|-----0---0---|-----0---0------|-----0---0------|
|---1-------1-|---1-------1-|---1-------1----|---1-------1----|
|-------------|-------------|----------------|----------------|
|-0-----------|-0-----------|-2--------------|-2--------------|
|-------------|-------------|----------------|----------------|



|-------0-----|-------0-----|
|-----0---0---|-----0---0---|
|---1-------1-|---1-------1-|
|-------------|-------------|
|-0-----------|-0-----------|
|-------------|-------------|


Break:
|-------0-----|-------0-----|-------0--------|-------0--------|
|-----0---0---|-----0---0---|-----0---0------|-----0---0------|
|---1-------1-|---1-------1-|---1-------1----|---1-------1----|
|-------------|-------------|----------------|----------------|
|-4-----------|-0-----------|----------------|----------------|
|-------------|-------------|-0--------------|-0--------------|



|-------0-----|-------0-----|-------0--------|-------0--------|
|-----0---0---|-----0---0---|-----0---0------|-----0---0------|
|---1-------1-|---1-------1-|---1-------1----|---1-------1----|
|-------------|-------------|----------------|----------------|
|-4-----------|-------------|-0--------------|-0--------------|
|-------------|-4-----------|----------------|----------------|



|-------0-----|-------0-----|-------0--------|-------0--------|
|-----0---0---|-----0---0---|-----0---0------|-----0---0------|
|---1-------1-|---1-------1-|---1-------1----|---1-------1----|
|-------------|-------------|----------------|----------------|
|-4-----------|-0-----------|----------------|----------------|
|-------------|-------------|-0--------------|-0--------------|



|-------0-----|-------0-----|-------0--------|-------0--------|
|-----0---0---|-----0---0---|-----0---0------|-----0---0------|
|---1-------1-|---1-------1-|---1-------1----|---1-------1----|
|-------------|-------------|----------------|----------------|
|-------------|-0-----------|-2--------------|-2--------------|
|-4-----------|-------------|----------------|----------------|


|-------0-----|-------0-----|
|-----0---0---|-----0---0---|
|---1-------1-|---1-------1-|
|-------------|-------------|
|-2-----------|-2-----------|
|-------------|-------------|
Related for You Cant Say No To Me tab
×
You Cant Say No To Me