Song name
# A B C D E F G H I J K L M N O P Q R S T U V W X Y Z

Tigers Jaw - Spirit Desire tab

Song:  Spirit Desire
Band:  Tigers Jaw
Album: Spirit Desire

---------------------------------|
---------------------------------|
---------------------------------|
---------------------------------|
----00-0--0-00-0---00-0--0-00-0--|
--2------2-------2------2--------|

---------------------------------|
---------------------------------|
---------------------------------|
---------------------------------|
----44-4-5p4----4--44-4-5p4---4--|
--5----------55--5----------55---|


Sometimes play this:
---------------------------------|
---------------------------------|
---------------------------------|
---------------------------------|
----00-0--0-00-0---00-0--0-00-0--|
--2------2-------2------2--------|

---------------------------------|
---------------------------------|
---------------------------------|
---------------------------------|
----44-4-5p4----4--44-4-7p5---4--|
--5----------55--5----------55---|


other part:
------------|
------------|
------------|
--5----2----|
--5----2----|
--3----0----|
Tap to rate this tab
# A B C D E F G H I J K L M N O P Q R S T U V W X Y Z