Song name
# A B C D E F G H I J K L M N O P Q R S T U V W X Y Z

Tigers Jaw - Jet Alone chords

Highlighted       Show chord diagrams
-----------------------------------------------------------------------------
			     JET ALONE - Tigers Jaw
-----------------------------------------------------------------------------
Tabbed by: Mean Mr Mustard
Email: Gotchristo@comcast.net

Tuning: Standard

Such a basic song, it just has two parts to it that repeat twice and thats it. Its a fun 
song to sing aloud with an acoustic though, so here you go. The fun part is down at the 
bottom (not entirely accurate, but you get it)

This is how they do the chords in the verse:
F#m  -  x-4-4-2-2-0-|
D    -  x-0-0-2-2-0-|
A    -  x-0-2-2-2-0-|
E    -  0-2-2-1-0-0-|

In the interlude:
D   -  x-x-0-2-3-2-|
A   -  x-0-2-2-2-0-|


INTRO:
F#m   D   x4
F#m   D
F#m   D  A  E  x2


VERSE:
F#m   D                 F#m             D
       I wanna walk all over you like a floorboard
F#m   D                   F#m   D  A  E
And I, I wanna lie like a politician
F#m   D        F#m                  D
And I, I wanna do those things your friends do
F#m   D        F#m          D  A  E
And I, I wanna be just like them


INTERLUDE:
D   -   A   -  x 4


OUTRO:
F#m   D
F#m   D  A  E  x2


INTRO/OUTRO:
e|-----0-2-0-------0-2-0------|
B|-2-2-------2---2-------2----|
G|----2--------2-----------2--| Just play around with that
D|----------------------------|
A|----------------------------|
E|----------------------------|


INTERLUDE:
  D                          A
e|--------------------------|------------|
B|--------------------------|------------|
G|-9--9--9-9--6--6--7--6-6--|-2--~-------|
D|-x--x--x-x--x--x--x--x-x--|-x----------|
A|-7--7--7-7--4--4--5--4-4--|-0--~-------|
E|--------------------------|------------|
  D                            A
e|----------------------------|------------|
B|----------------------------|------------|
G|-9--11-9-6--9--11-9--6-7-6--|-2--~-------|
D|-x--x--x-x--x--x--x--x-x-x--|-x----------|
A|-7--9--7-4--7--9--7--4-5-4--|-0--~-------|
E|----------------------------|------------|
  D                                 A
e|---------------------------------|------------------------------|
B|---------------------------------|------------------------------|
G|-9--9-11-11111113--13-14--14-14--|-14-1413-1313-11-1118--18-18--|
D|-x--x-x--x-x-x-x---x--x---x--x---|-x--x-x--x-x--x--x-x---x--x---|
A|-7--7-9--9-9-9-11--11-12--12-12--|-12-1211-1111-9--9-16--16-16--|
E|---------------------------------|------------------------------|
  D                          A
e|--------------------------|------------|
B|--------------------------|------------|
G|-9--9--9-9--6--6--7--6-6--|-2--~-------|
D|-x--x--x-x--x--x--x--x-x--|-x----------|
A|-7--7--7-7--4--4--5--4-4--|-0--~-------|
E|--------------------------|------------|
Tap to rate this tab
 
# A B C D E F G H I J K L M N O P Q R S T U V W X Y Z