Song name
# A B C D E F G H I J K L M N O P Q R S T U V W X Y Z

Tigers Jaw - Plane Vs Tank Vs Submarine tab

INTRO

|-------------------------|X3
|------1------1-----------|
|----2----0h2---2---2-----|
|-----------------2-------|
|-0-----------------------|
|-------------------------|

       G           F 
Lie to me like you used to
         Am           G                   Am  
Tell me everything is how it should be
        G            F
Lie to me, did you have to?
               Am            G           D7sus2
Because in the end it never matters what I think
Am                                        F
And I can barely tell the sky from the shoreline
Am                                   F                   
And I can see myself reflected in your eyes

                    C
And this was all a dream
                      C/B
And it's coming back to me
                      Am
A portrait in grey scale
               F7
A perfect betrayal
                   C                            C/B
And I can't even breathe with this weighing on my chest
                 Am
You knew me at my best 
                   F7
Now I can't even stand on my own

SOLO

|--------3---0---------------------------------------------3--3/5|
|--3--5--------2/3-1---1----3/5---3--1---1------1-3---3/5--------|
|--------------------2---2-------------2---2--2------------------|
|----------------------------------------------------------------|
|----------------------------------------------------------------|
|----------------------------------------------------------------|

|3-3-3----3-3------------------------------------0---1-0---------|
|0-0-0---------5-5-5/6-3-3--------------6/8-5--1---1-----3---1---|
|0-0-0---------------------5-5-------5---------------------------|
|----------------------------------------------------------------|
|----------------------------------------------------------------|
|----------------------------------------------------------------|


|----------------------------------------------------------------|
|3/5--5-3--1-------1-1/3-1-3/5-3-1--------1-3-1-3/5-3-1-3/5-3/5--|
|------------2-0h2------------------2-0h2------------------------|
|----------------------------------------------------------------|
|----------------------------------------------------------------|
|----------------------------------------------------------------|

|-------------------------------------------------5-----|
|---1-3-1--1----3/5---3/5----3-1-------1-3-1--3/5---5---|
|2-2------2-2--------------------2-0h2------------------|
|-------------------------------------------------------|
|-------------------------------------------------------|
|-------------------------------------------------------|

|5--8--5--3--1-------------0-1-----0-1------------------|
|---------------5--3---1-3-----1-3------3-3/5-3/5--3--1-|
|-------------------------------------------------------|
|-------------------------------------------------------|
|-------------------------------------------------------|
|-------------------------------------------------------|


|-------------------------------------------------------|
|--------1-3-1-3/5-3-1---------1-3-1-3/5--3-1---3/5-----|
|--2-0h2---------------2--0h2-----------------2---------|
|-------------------------------------------------------|
|-------------------------------------------------------|
|-------------------------------------------------------|
Tap to rate this tab
 
# A B C D E F G H I J K L M N O P Q R S T U V W X Y Z