Song name
# A B C D E F G H I J K L M N O P Q R S T U V W X Y Z

Tigers Jaw - Cool tab

"Cool" by Tigers Jaw - Acoustic Tab

Simple but amazing and really fun song to play.

Listen to the song to pick up the strum pattern for these chords.

The chord progression of the verses only has two parts.
Part 1:

e|----0-----0-----0-----0---------|
B|----0-----0-----0-----0---------|
G|----0-----0-----0-----0---------|
D|----2-----0-----2-----x---------|
A|----2-----x-----2-----2---------|
E|----0-----5-----0-----3---------|

Part 2:

e|-----0-----0-----0-----0--------|
B|-----0-----0-----0-----0--------|
G|-----0-----0-----0-----0--------|
D|-----0-----2-----x-----0--------|
A|-----x-----2-----7-----x--------|
E|----10-----0-----8-----7--------|

Chorus: "It's a cruel world/ But it's cool"

e|-----0-----0-----0--------|
B|-----0-----0-----0--------|
G|-----0-----0-----0--------|
D|-----0-----2-----x--------|
A|-----x-----2-----7--------|
E|----10-----0-----8--------|
Tap to rate this tab
# A B C D E F G H I J K L M N O P Q R S T U V W X Y Z