Song name
# A B C D E F G H I J K L M N O P Q R S T U V W X Y Z

Tigertailz - Noise Level Critical tab

This is my first tab and i'm awful at learning stuff by ear but i really wanted to learn 
song. i don't have the full tabs but this is all i've got so far.
if anyone else can figure anymore out please send me a message

Finger picked
|-----------------------------------------------------------------------------|
|---3--3--3--3--3-----3-3s6--3--3--3--3--3----3-3-2---------------------------|
|---2--2--2--2--2-----2-2s5--2--2--2--2--2----2-2-2---------------------------|
|-----------------------------------------------------------------------------|
|-----------------------------------------------------------------------------|
|-----------------------------------------------------------------------------|

|-----------------------------------------------------------------------------|
|---3--3--3--3--3-----3-3s6--3--3--3--3--3----3-3-2---------------------------|
|---2--2--2--2--2-----2-2s5--2--2--2--2--2----2-2-2---------------------------|
|-----------------------------------------------------------------------------|
|-----------------------------------------------------------------------------|
|-----------------------------------------------------------------------------|

|-----------------------------------------------------------------------------|
|---3--3--3--3--3-----3-3s5-5b5-3---3--3--3--3--3----3-3-2--------------------|
|---2--2--2--2--2-----2-2s4---------2--2--2--2--2----2-2-2--------------------|
|-----------------------------------------------------------------------------|
|-----------------------------------------------------------------------------|
|-----------------------------------------------------------------------------|

|-----------------------------------------------------------------------------|
|---3--3--3--3--3-----3-3s5-5b5-3---3--3--3--3--3----3-3-2--------------------|
|---2--2--2--2--2-----2-2s4---------2--2--2--2--2----2-2-2--------------------|
|-----------------------------------------------------------------------------|
|-----------------------------------------------------------------------------|
|-----------------------------------------------------------------------------|

|-----------------------------------------------------------------------------|
|---3--3--3--3--3-----3-3s6--3--3--3--3--3----3-3-2---------------------------|
|---2--2--2--2--2-----2-2s5--2--2--2--2--2----2-2-2---------------------------|
|-----------------------------------------------------------------------------|
|-----------------------------------------------------------------------------|
|-----------------------------------------------------------------------------|

 With Pick                    x3
|-----|--------------------------------------|--------------------------------|
|-----|--------------------------------------|--------------------------------|
|-----|------------------------------9-7-----|----7---------------------------|
|-9-7-|-9-7-------9-9-7------9-9-9-7-7-5-----|----5-7-9-9---------------------|
|-7-5-|-7-5-9-----7-7-5-9----7-7-7-5---------|------5-7-7---------------------|
|-----|-----7-----------7--------------------|--------------------------------|
Tap to rate this tab
# A B C D E F G H I J K L M N O P Q R S T U V W X Y Z