Song name
# A B C D E F G H I J K L M N O P Q R S T U V W X Y Z

Tihuana - Tropa De Elite tab

Tropa De Elite

(Afina em D)
Intro

e]-------------------------------------------------------------|
b]-------------------------------------------------------------|
g]77-7-55-77-7-55-77-7-55-7b7b7b7b---------------------------7-|
d]77-7-55-77-7-55-77-7-55-7b7b7b7b---------------------------7-|
a]55-5-33-55-5-33-55-5-33-5b5b5b5b-0-0654-0-0654-0-0654-0567-5-|
d]---------------------------------0-0654-0-0654-0-0654-0567---|

(no verso s fica o baixo e a guitarra s entra de vez em quando, fique no baixo fazendo D e C)
T chegando de bicho, t chegando e  de bicho
						    D C
Pode parar com essa histria de se fazer de difcil
Que eu t chegando, t chegando e  de bicho
                                                a]0567
                                                d]0567
Pode parar com essa marra, pode parando com isso

(Estribilho)
D
Num d bobeira no, c t na minha mo
					C
Segunda-feira  s histria pra contar
No vem com idia no, no quero confuso
					  (baixo faz d]5-4-3-0)
Mas vamo junto que hoje o bicho vai pegar
<-Vamo vaza, vamo vaza. Porque a

(Refro 2X)

(mesma coisa da introduo)
Tropa de elite, osso duro de roer
Pega um, pega geral, tambm vai pegar voc!
Tropa de elite, osso duro de roer
Pega um, pega geral, tambm vai pegar voc!

Chega pra l, chega pra l, osso duro de roer
T chegando e vou passar
Cheguei de repente, vai ser diferente
Sai da minha frente,
				  D C
Sai da minha frente meu irmo, no
No vem com isso no
T chegando  de ladro
Porque quando eu pego levo na mo
				 a]0567
                                 d]0567
No mando recado vou na contramo

(Repete Estribilho)

e]------------|
B]------------|
G]------------|
D]---------5--|
A]55-77-88--8-|
D]------------|
Tem dia que a criana chora mas a me no escuta
E voc nada pra fora mas a vala te puxa
Hoje pode ser meu dia, pode at ser o seu
A diferena  que eu vou embora mas eu levo o que  meu

(Repete Refro)

e]------------|
B]------------|
G]------------|
D]---------5--|
A]55-77-88--8-|
D]------------|
MURO DE CONCRETO, BOM DE DERRUBAR
 TIHUANA, PAU VAI QUEBRAR!

(Repete Refro)
(Final)

]------------------------------------|
]----------------------------------7-|
]----------------------------------7-|
]----------------------------------5-|
]00567-00567-00567-00567-00-0-0-00---|
]00567-00567-00567-00567-00-0-0-00---|
Tap to rate this tab
# A B C D E F G H I J K L M N O P Q R S T U V W X Y Z