Song name
# A B C D E F G H I J K L M N O P Q R S T U V W X Y Z

Tihuana - Renata tab

Tihuana
Renata
Key: C

INTRO:G D Em C

---------------------------------------------------------------|
------0----0-----------3---3--------0---0--------1----1--------|
---0----0-----------2----2-------0----0-------0----0-----------|
-------------------0-------------------------------------------|
---------------------------------2------------3----------------|
3--------------------------------------------------------------|
FIRST RIFF:
G D C D
O mundo foi quem acolheu
Pura caridade
Mais quando foi para escola
Não podia mais fikar
Então ela partiu
G C D
Aos doze anos não é mais criança
Então pode esperar
Por alguem assim
Pelo resto da vida

CHORUS:
G D Em C
Me diz então
O que você fez
O que você fez
Da sua arte de sobreviver
Desse seu jeito de sobreviver(2x)

Ela não sabia o que era o amor
Ela não sabia mais

SECOND RIFF:
G D C D
Pensou em se casar
Ter filho para criar
Desprovaram o que é o amor
Mais teve medo de se apaixonar
Então partiu
G C D
Mais uma vez se foi
E ninguem vai esperar
Por alguem assim
Pelo resto da vida

CHORUS:
G D Em C
Me diz então
O que você fez
O que você fez
Da sua arte de sobreviver
Desse seu jeito de sobreviver(2x)

END:
G D C D
A sim viveu renata
Dificil de te esquecer
Ao ver alguem partir
Que não espera por você
G C D
Que não espera por você

Refrão
G D Em C
Me diz então
O que você fez
O que você fez
Da sua arte de sobreviver
Desse seu jeito de sobreviver(2x)
Ela não sabia o que era o amor
Ela não sabia mais
ohoh
Ela não sabia o que era o amor
Ela não sabia mais

  -3--------|
  -3--------|
G:-0--------|
  -0--------|
  -2--------|
  -3--------|

  --2-------|
D:--3-------|
  --2-------|
  ----------|
  ----------|
  ----------|


   ---------|
Em:---------|
   ---------|
   ---2-----|
   ---2-----|
   ---------|


  ----------|
  --1-------|
C:--0-------|
  --2-------|
  --3-------|
  ----------|

The lyrics I get them from my CD of Tihuana. The intro is nnot complete I think. This 
rocks. If you have comments, write to me to this mail:
jose_cbx@hotmail.com
Tap to rate this tab
# A B C D E F G H I J K L M N O P Q R S T U V W X Y Z