Song name
# A B C D E F G H I J K L M N O P Q R S T U V W X Y Z

Tiki Taane - Always On My Mind tab

-------------------------------------------------------------------------------
			     SONG NAME - Band Name
-------------------------------------------------------------------------------
Tabbed by:wuggle15
Email:wugle15@hotmail.com

Tuning:Eadgbe

Intro
e|-9--------------------7-|
B|-10---10-9------------9-|
G|-11--------11-9-------9-|
D|-11-------------11----9-|
A|-9--------------------7-|
E|------------------------|

Verse x6
      F#m                    E               Bm                D6      E
e|-x---9----------9--9---x---7-------7-7--x-----------7-7--x---7-7---------|
B|-x---10---------10-10--x---9-------9-9--x---7-------7-7--x---7-7-----9-9-|
G|-x---11---------11-11--x---9-------9-9--x---7-------7-7--x---7-7-----9-9-|
D|-x---11---11-11-11-11--x-------999------x---9-------9-9--x---7-7-----9-9-|
A|-x-9----9--------------x-7---7----------x-------9-9------x-5-----777-----|
E|-x---------------------x----------------x-7---7----------x---------------|
pm   .    .  .  .  '  '    .   . ...        .   . . .        .     ...

Chorus x2
  Bm           D           A           G
e|-7----7-7----5----5-5----5----5-5----3----3-3----------------------------|
B|-7----7-7----7----7-7----5----5-5----3----3-3----------------------------|
G|-7----7-7----7----7-7----6----6-6----4----4-4----------------------------|
D|-9----9-9----7----7-7----7----7-7----5----5-5----------------------------|
A|-9----9-9----5----5-5----7----7-7----5----5-5----------------------------|
E|-7----7-7----5----5-5----5----5-5----3----3-3----------------------------|

Solo
e|-------------------------------------------------------------------------|
B|------10--10--10\9------------------------9--9--9------------------------|
G|---11---------------11------------------9----------11p9------------------|
D|-11-----------------------------------9----------------------------------|
A|-------------------------------------------------------------------------|
E|-------------------------------------------------------------------------|

e|-------------------------------------------------------------------------|
B|-------------------------------------------------------------------------|
G|---------9--11--9--------------------------------------------------------|
D|--11h12------------12--11--9--12--11-------------------------------------|
A|-------------------------------------------------------------------------|
E|-------------------------------------------------------------------------|

e|-------------------------------------------------------------------------|
B|------10--10-10\9------------------------9--9--9-------10----------------|
G|---11--------------11------------------9----------9p7--------------------|
D|-11----------------------------------9-----------------------------------|
A|-------------------------------------------------------------------------|
E|-------------------------------------------------------------------------|

e|-------------------------------------------------------------------------|
B|-----9--10--12--10--9------9---------------------------------------------|
G|-11--------------------11-----9--11--------------------------------------|
D|-------------------------------------------------------------------------|
A|-------------------------------------------------------------------------|
E|-------------------------------------------------------------------------|

Verse x4
      F#m                    E               Bm                D6      E
e|-x---9----------9--9---x---7-------7-7--x-----------7-7--x---7-7---------|
B|-x---10---------10-10--x---9-------9-9--x---7-------7-7--x---7-7-----9-9-|
G|-x---11---------11-11--x---9-------9-9--x---7-------7-7--x---7-7-----9-9-|
D|-x---11---11-11-11-11--x-------999------x---9-------9-9--x---7-7-----9-9-|
A|-x-9----9--------------x-7---7----------x-------9-9------x-5-----777-----|
E|-x---------------------x----------------x-7---7----------x---------------|
pm   .    .  .  .  '  '    .   . ...        .   . . .        .     ...

Chorus x2
Bm           D           A           G
e|-7----7-7----5----5-5----5----5-5----3----3-3----------------------------|
B|-7----7-7----7----7-7----5----5-5----3----3-3----------------------------|
G|-7----7-7----7----7-7----6----6-6----4----4-4----------------------------|
D|-9----9-9----7----7-7----7----7-7----5----5-5----------------------------|
A|-9----9-9----5----5-5----7----7-7----5----5-5----------------------------|
E|-7----7-7----5----5-5----5----5-5----3----3-3----------------------------|

Outro x4
F#m                    E               Bm                D6      E
e|-x---9----------9--9---x---7-------7-7--x-----------7-7--x---7-7---------|
B|-x---10---------10-10--x---9-------9-9--x---7-------7-7--x---7-7-----9-9-|
G|-x---11---------11-11--x---9-------9-9--x---7-------7-7--x---7-7-----9-9-|
D|-x---11---11-11-11-11--x-------999------x---9-------9-9--x---7-7-----9-9-|
A|-x-9----9--------------x-7---7----------x-------9-9------x-5-----777-----|
E|-x---------------------x----------------x-7---7----------x---------------|
pm   .    .  .  .  '  '    .   . ...        .   . . .        .     ...


************************************

| \   slide down
| h   hammer-on
| p   pull-off
| x   Slap Strings
| .   Palm mute 
| '   Stacato
************************************
Tap to rate this tab
 
# A B C D E F G H I J K L M N O P Q R S T U V W X Y Z