Song name
# A B C D E F G H I J K L M N O P Q R S T U V W X Y Z

Tiktak - Heilutaan tab

|----------------------------------------------------|
|----------------------------------------------------|
|----------------------------------------------------|
|----------------------------------------------------|
|--7-7-7-6-7-7---------------4-4-4-3-4-4--7----------|
|---------------7-7-7-6-7-7-----------------4-5-6-7-7|


|----------------------------------------------------|
|----------------------------------------------------|
|----------------------------------------------------|
|----------------------------------------------------|
|--7-7-7-6-7-7---------------4-4-4-3-4-4--7----------|
|---------------7-7-7-6-7-7-----------------4-5-6-7-7|

|----------------------------------------------------|
|----------------------------------------------------|
|----------------------------------------------------|
|----------------------------------------------------|
|--------7-------------------------------------------|
|--5--5----4-5-6-7-7---------------------------------|
Tap to rate this tab
# A B C D E F G H I J K L M N O P Q R S T U V W X Y Z