Song name
# A B C D E F G H I J K L M N O P Q R S T U V W X Y Z

Tiktak - Heilutaan tab

----------------------------------------------------------------------------
                        HEILUTAAN - Tiktak
----------------------------------------------------------------------------
Tabbed by: peteihis

This arrangement is for two guitars, with the option to play some
keyboard parts with the 2nd guitar. The parts may not be captured
*exactly* as they are, but this has worked pretty well for me and
the band.

One character lenght means a 1/16 note. The lyrics did not fit this
timing so, I had to leave them out.

Guitar_1
========

INTRO_Line_1:
e|----------------|----------------|----------------|----------------|
B|----------------|----------------|----------------|----------------|
G|----------------|----5-------5---|----7-------7---|----------------|
D|----3-------3---|----------------|----------------|----------------|
A|----------------|3-3---2-3-------|5-5---4-5-------|8---------------|
E|1-1---0-1-------|----------------|----------------|--5-6-7-8---8---|

INTRO_Line_2:
  (F)              (C)              (Dm)             (Bb)    (C)
e|----------------|----------------|----------------|----------------|
B|----------------|----------------|----------------|----------------|
G|----------------|----5-------5---|----7-------7---|----------------|
D|----3-------3---|----------------|----------------|----------------|
A|----------------|3-3---2-3-------|5-5---4-5-------|8---------------|
E|1-1---0-1-------|----------------|----------------|--5-6-7-8---8---|

INTRO_Line_3:
  (Bb)                    (C)
e|----------------|----------------|
B|----------------|----------------|
G|7-----7-----7---|----------------|
D|8-----8-----8---|----------------|
A|8-----8-----8---|8---------------|
E|6-----6-----6---|--5-6-7-8---8---|


VERSE_1:

 Repeat x2
  Dm               Bb               F                C
e|--5---5---5---5-|--6---6---6---6-|--5---5---5---6-|----------------|
B|--6---6---6---6-|--6---6---6---6-|--6---6---6---5-|--5---5---5---5-|
G|--7---7---7---7-|--7---7---7---7-|--5---5---5---6-|--5---5---5---5-|
D|----------------|----------------|----------------|--5---5---5---5-|
A|----------------|----------------|----------------|----------------|
E|----------------|----------------|----------------|----------------|

  Bb                                C
e|----------------|----------------|----------------|----------------|
B|----------------|----------------|----------------|----------------|
G|3-----3-3-----3-|3-----3-3-----3-|5-----5-5-----5-|5-5-5-5-5x--5---|
D|3-----3-3-----3-|3-----3-3-----3-|5-----5-5-----5-|5-5-5-5-5x--5---|
A|1-----1-1-----1-|1-----1-1-----1-|3-----3-3-----3-|3-3-3-3-3x--3---|
E|----------------|----------------|----------------|----------------|

INTRO_Line_2

VERSE_2

CHORUS:

 Repeat x2
  F                C                Dm               Bb
e|----------------|----------------|----------------|----------------|
B|----------------|----------------|----------------|----------------|
G|----------------|----------------|----------------|----------------|
D|----------------|----------------|0---0---0---0-1-|3---------------|
A|----------0-1-2-|3---3---3-2-3-4-|----------4-----|--0-1-2-3---3---|
E|1---1---1-------|----------------|----------------|----------------|

  C                                 F                F       C
e|----------------|----------------|----------------|----------------|
B|----------------|----------------|----------------|----------------|
G|3---3---3-3-3-3-|3---3---3-3-3-3-|----------------|----------------|
D|3---3---3-3-3-3-|3---3---3-3-3-3-|3---3---3---3-3-|3---------------|
A|1---1---1-1-1-1-|1---1---1-1-1-1-|3---3---3---3-3-|--0-1-2-3---3---|
E|----------------|----------------|1---1---1---1-1-|----------------|


INTRO_line_2 x2 (No typo, play twice!)

VERSE_3

CHORUS

BRIDGE:

 Repeat x2 (If there are 2 guitars, lead plays nothing on this line)
  Bb                                Dm
e|----------------|----------------|----------------|----------------|
B|----------------|----------------|----------------|----------------|
G|----------------|----------------|----------------|----------------|
D|----------------|----------------|7-7-7-7-7-7-7-7-|7-7-7-7-7-7-7-7-|
A|8-8-8-8-8-8-8-8-|8-8-8-8-8-8-8-8-|5-5-5-5-5-5-5-5-|5-5-5-5-5-5-5-5-|
E|6-6-6-6-6-6-6-6-|6-6-6-6-6-6-6-6-|----------------|----------------|

  Bb                                Dm
e|----------------|----------------|----------------|8-----5---------|
B|----------------|----------------|6-----5---------|------------5---|
G|5-----7---------|----------------|------------5---|----------------|
D|----------------|----------------|----------------|----------------|
A|----------------|----------------|----------------|----------------|
E|----------------|----------------|----------------|----------------|

  Bb                                Am
e|----------------|----------------|----------------|----------------|
B|----------------|----------------|----------------|----------------|
G|5-----7---------|------------x---|9---------------|--------9---10--|
D|----------------|----------------|----------------|----------------|
A|----------------|----------------|----------------|----------------|
E|----------------|----------------|----------------|----------------|

  C
e|----------------|----------------|
B|----------------|----------------|
G|12--------------|--12121212x-----|
D|----------------|--10101010x-----|
A|----------------|----------------|
E|----------------|-----------(8\1)|


CHORUS x2

INTRO_line_2 x2

OUTRO:

  (Bb)                    (C)       (Bb)   (C)       (Bb)    (C)      F
e|----------------|----------------|----------------|----------------|-------
B|----------------|----------------|----------------|----------------|-------
G|7-----7-----7---|----------------|----------------|----------------|2---2x-
D|8-----8-----8---|----------------|----------------|----------------|3---3x-
A|8-----8-----8---|8---------------|8---------------|8---------------|3---3x-
E|6-----6-----6---|--5-6-7-8---8---|--5-6-7-8---8---|--5-6-7-8---8---|1---1x-



----------------------------------------------------------------------

Guitar_2 (With options)
=======================

INTRO_Line_1: Nothing to play

INTRO_Line_2-3: Double the lead guitar with a different fingering

 (F)              (C)              (Dm)             (Bb)    (C)
e|----------------|----------------|----------------|----------------|
B|----------------|----------------|----------------|----------------|
G|----------------|----------------|----------------|----------------|
D|----3-------3---|---10-------10--|----12------12--|3---------------|
A|----------------|----------------|----------------|--0-1-2-3---3---|
E|1-1---0-1-------|8-8---7-8-------|1010--9-10------|----------------|

 (Bb)                     (C)
e|----------------|----------------|
B|----------------|----------------|
G|----------------|----------------|
D|3-----3-----3---|3---------------|
A|1-----1-----1---|--0-1-2-3---3---|
E|----------------|----------------|


INTRO_Line_2-3: Keyboard parts adapted on guitar

e|----------------|----------------|----------------|----------------|
B|----------------|----------------|----------------|----------------|
G|1010109-10--10--|----------------|7-7-7-6-7---7---|10--------------|
D|----------------|1010109-10--10--|----------------|--7-8-9-10--10--|
A|----------------|----------------|----------------|----------------|
E|----------------|----------------|----------------|----------------|

e|----------------|----------------|
B|----------------|----------------|
G|7-----7-----7---|10--------------|
D|8-----8-----8---|--7-8-9-10--10--|
A|----------------|----------------|
E|----------------|----------------|


VERSE:

 Repeat x2
  Dm               Bb               F                C
e|--5---5---5---5-|--6---6---6---6-|--1---1---1---1-|--3---3---3---3-|
B|--6---6---6---6-|--6---6---6---6-|--1---1---1---1-|--5---5---5---5-|
G|--7---7---7---7-|--7---7---7---7-|--2---2---2---2-|--5---5---5---5-|
D|--7---7---7---7-|--8---8---8---8-|--3---3---3---3-|--5---5---5---5-|
A|----------------|----------------|----------------|----------------|
E|----------------|----------------|----------------|----------------|

  Bb                                C
e|----------------|----------------|3-----3-3-----3-|3-3-3-3-3-------|
B|--6---6---6-6-6-|--6---6---6-6-6-|5-----5-5-----5-|5-5-5-5-5-------|
G|--7---7---7-7-7-|--7---7---7-7-7-|5-----5-5-----5-|5-5-5-5-5-------|
D|--8---8---8-8-8-|--8---8---8-8-8-|5-----5-5-----5-|5-5-5-5-5-------|
A|--8---8---8-8-8-|--8---8---8-8-8-|3-----3-3-----3-|3-3-3-3-3-------|
E|--6---6---6-6-6-|--6---6---6-6-6-|----------------|----------------|

CHORUS:

 Repeat x2
  F                C                Dm               Bb
e|----------------|----------------|----------------|----------------|
B|----------------|--------5-5-5-5-|--------6-6-6-6-|----------------|
G|--------2-2-2-2-|5---5---5-5-5-5-|7---7---7-7-7-7-|--------7-7-7-7-|
D|3---3---3-3-3-3-|5---5---5-5-5-5-|7---7---7-7-7-7-|8---8---8-8-8-8-|
A|3---3---3-3-3-3-|3---3---3-3-3-3-|5---5---5-5-5-5-|8---8---8-8-8-8-|
E|1---1---1-1-1-1-|----------------|----------------|6---6---6-6-6-6-|

  Bb                                F                        C
e|----------------|----------------|----------------|--------3x------|
B|----------------|----------------|----------------|--------5x------|
G|----------------|----------------|----------------|2-2-2-2-5x------|
D|8-----8-8---x---|8-----8-8---x---|3-----3-3---x---|3-3-3-3-5x------|
A|8-----8-8---x---|8-----8-8---x---|3-----3-3---x---|3-3-3-3-3x------|
E|6-----6-6---x---|6-----6-6---x---|1-----1-1---x---|1-1-1-1---------|


BRIDGE: As the backing guitar plays it.

 Keep light touch and damp gently through the part...

 Repeat x3
  Bb                                Dm
e|----------------|----------------|----------------|----------------|
B|----------------|----------------|----------------|----------------|
G|----------------|----------------|----------------|----------------|
D|----------------|----------------|7-7-7-7-7-7-7-7-|7-7-7-7-7-7-7-7-|
A|8-8-8-8-8-8-8-8-|8-8-8-8-8-8-8-8-|5-5-5-5-5-5-5-5-|5-5-5-5-5-5-5-5-|
E|6-6-6-6-6-6-6-6-|6-6-6-6-6-6-6-6-|----------------|----------------|


  Bb                                Am
e|----------------|----------------|----------------|----------------|
B|----------------|----------------|----------------|----------------|
G|----------------|----------------|----------------|----------------|
D|----------------|----------------|----------------|----------------|
A|8-8-8-8-8-8-8-8-|8-8-8-8-8-8-8-8-|7-7-7-7-7-7-7-7-|7-7-7-7-7-7-7-7-|
E|6-6-6-6-6-6-6-6-|6-6-6-6-6-6-6-6-|5-5-5-5-5-5-5-5-|5-5-5-5-5-5-5-5-|


  C                 Crecendo!
e|----------------|--------3x------|
B|----------------|----5-5-5x------|
G|----------------|5-5-5-5-5x------|
D|5-5-5-5-5-5-5-5-|5-5-5-5-5x------|
A|3-3-3-3-3-3-3-3-|3-3-3-3-3x------|
E|----------------|----------------|



BRIDGE: With the keyboard part adapted on guitar. This is based on a couple 
        of later live recordings. On some earlier recordings Nea plays a
        chord on Dm and Am and the Bb parts are slightly different too.

LINE_1
  Bb                                Dm
e|----------------|----------------|----------------|8-----5---------|
B|----------------|5-----6---------|6-----5---------|------------5---|
G|5-----7---------|----------------|------------5---|----------------|
D|----------------|----------------|----------------|----------------|
A|----------------|----------------|----------------|----------------|
E|----------------|----------------|----------------|----------------|

LINE_2
  Bb                                Dm
e|----------------|----------------|----------------|8---------------|
B|----------------|5-----6-----5---|5-----6----5----|----------------|
G|5-----7---------|----------------|----------------|----------------|
D|----------------|----------------|----------------|----------------|
A|----------------|----------------|----------------|----------------|
E|----------------|----------------|----------------|----------------|

REPEAT LINE_1

LINE_3
  Bb                                Am
e|----------------|----------------|----------------|----------------|
B|----------------|5-----6---------|8---------------^8---------------^
G|5-----7---------|----------------|----------------|----------------|
D|----------------|----------------|----------------|----------------|
A|----------------|----------------|----------------|----------------|
E|----------------|----------------|----------------|----------------|

  C
e|----------------|----------------|
B^8---------------^8---------------|
G|----------------|----------------|
D|----------------|----------------|
A|----------------|----------------|
E|----------------|----------------|
Tap to rate this tab
 
# A B C D E F G H I J K L M N O P Q R S T U V W X Y Z