Song name
# A B C D E F G H I J K L M N O P Q R S T U V W X Y Z

Tiktak - Lahdetaan Tanaan tab

---------------------------------------------------------------------------
                       LÄHDETÄÄN TÄNÄÄN - Tiktak
---------------------------------------------------------------------------
Tabbed by: peteihis

Solo1:

  1       2       3       4        1       2       3       4       
e|--------------------------------|--------------------------------|
B|12------------------------------|--------12xx----12------14------|
G|--------------------14--13--14--|--(b1/4)------------------------|
D|--------------------------------|--------------------------------|
A|--------------------------------|--------------------------------|
E|--------------------------------|--------------------------------|

  1       2       3       4        1       2       3       4       
e|--------------------------------|--------------------------------|
B|14b16---14b16---14--12----------|--------12xx----12--------------|
G|------------------------14--14--|--(b1/4)------------------------|
D|--------------------------------|--------------------------------|
A|--------------------------------|--------------------------------|
E|--------------------------------|--------------------------------|

  1       2       3       4        1       2       3       4       
e|--------------------------------|--------------------------------|
B|12------------------------------|--------12xx----12------14------|
G|--------------------14--13--14--|--(b1/4)------------------------|
D|--------------------------------|--------------------------------|
A|--------------------------------|--------------------------------|
E|--------------------------------|--------------------------------|

  1       2       3       4        1       2       3       4       
e|--------------------------------|--------------------------------|
B|14b16---14b16---14--14------12--|--let ring--------------x-------|
G|------------------------14------|--------------------------------|
D|--------------------------------|--------------------------------|
A|--------------------------------|--------------------------------|
E|--------------------------------|--------------------------------|



Solo2 -- like Solo1 until the last line:

  1       2       3       4        1       2       3       4       
e|--------------------------------|--------------------------------|
B|14b16---14b16---14--14------12--|--let ring------\5------x-------|
G|------------------------14------|--------------------------------|
D|--------------------------------|--------------------------------|
A|--------------------------------|--------------------------------|
E|--------------------------------|--------------------------------|


The (b1/4) means a slight bend up by the end of the long note. It is not 
so much changing the pitch but rather just giving the note a bit more
character.

:)
Tap to rate this tab
# A B C D E F G H I J K L M N O P Q R S T U V W X Y Z