Song name
# A B C D E F G H I J K L M N O P Q R S T U V W X Y Z

Tillis Pam - Melancholy Child tab

From: schn0170@maroon.tc.umn.edu (Adam Schneider)


MELANCHOLY CHILD (Pam Tillis, Bob DiPiero)
------------------------------------------

In Dm:

e --------|------5---5-3---0----0-|1=0---1=0---------------|
B ------1-|3---3-------------1----|----1-----1-3-----------|
G --2-----|-----------------------|------------------------|

Or in Am, capoed up 5:

e --------|------0---0------------|------------------------|
B --------|------------3---0----0-|1=0---1=0---------------|
G ------0-|2---2-------------0----|----0-----0-2-----------|
D --2-----|-----------------------|------------------------|

The chords are Dm Dm C Dm in some parts, and Dm C C Dm in others.  I think.

I think it's G, A7, and A7(#5) in the bridge.  Maybe.



- Adam Schneider, schn0170@maroon.tc.umn.edu
Tap to rate this tab
# A B C D E F G H I J K L M N O P Q R S T U V W X Y Z