Song name
# A B C D E F G H I J K L M N O P Q R S T U V W X Y Z

Tilly And The Wall - Coughing Colors tab

tabbed by barry kaczor

Solo

E--13-11----------------------------------|
B--------14-13-11-------------------------|
G-----------------13-11-10----------------|
D--------------------------13-11-10-------|
A-----------------------------------13-11-|
E-----------------------------------------|

E--------------------------------------------------13--11--------------|
B----------------------------------------------------------14--13------|
G---------------------------------------------10-------------------13~-|
D-----------------11--11--13---10---11---13----------------------------|
A-11--11--13--11-------------------------------------------------------|
E----------------------------------------------------------------------|


Tap to rate this tab
# A B C D E F G H I J K L M N O P Q R S T U V W X Y Z