Song name
# A B C D E F G H I J K L M N O P Q R S T U V W X Y Z

Tilly And The Wall - Ice Storm Big Gust And You tab

Title: Ice Storm, Big Gust, And You
Artist: Tilly and the Wall
Album: Sad Sad Song

      G
E||---3-3--3-3-3-3-3--3-3-3-3-3--3-3-3-3-3--3-3-3-|
B||---0-0--0-0-0-0-0--0-0-0-0-0--0-0-0-0-0--0-0-0-|
G||---0-0--0-0-0-0-0--0-0-0-0-0--0-0-0-0-0--0-0-0-|
D||---0-0--0-0-0-0-0--0-0-0-0-0--0-0-0-0-0--0-0-0-|
A||---2-2--2-2-2-2-2--2-2-2-2-2--2-2-2-2-2--2-2-2-|
e||---3-3--3-3-3-3-3--3-3-3-3-3--3-3-3-3-3--3-3-3-|



E|-3-3--3-3-3-3-3--3-3-3-3-3--3-3-3-3-3--3-3-3-|
B|-0-0--0-0-0-0-0--0-0-0-0-0--0-0-0-0-0--0-0-0-|
G|-0-0--0-0-0-0-0--0-0-0-0-0--0-0-0-0-0--0-0-0-|
D|-0-0--0-0-0-0-0--0-0-0-0-0--0-0-0-0-0--0-0-0-|
A|-2-2--2-2-2-2-2--2-2-2-2-2--2-2-2-2-2--2-2-2-|
e|-3-3--3-3-3-3-3--3-3-3-3-3--3-3-3-3-3--3-3-3-|
 ..swear..                        ..rain..

   C
E|-0-0--0-0-0-0-0--0-0-0-0-0--0-0-0-0-0--0-0-0-|
B|-1-1--1-1-1-1-1--1-1-1-1-1--1-1-1-1-1--1-1-1-|
G|-0-0--0-0-0-0-0--0-0-0-0-0--0-0-0-0-0--0-0-0-|
D|-2-2--2-2-2-2-2--2-2-2-2-2--2-2-2-2-2--2-2-2-|
A|-3-3--3-3-3-3-3--3-3-3-3-3--3-3-3-3-3--3-3-3-|
e|---------------------------------------------|
 ..frozen..                       ..way..

   D                     C
E|-2-2--2-2-2-2-2--2-2-2-0-0--0-0-0-0-0--0-0-0-|
B|-3-3--3-3-3-3-3--3-3-3-1-1--1-1-1-1-1--1-1-1-|
G|-2-2--2-2-2-2-2--2-2-2-0-0--0-0-0-0-0--0-0-0-|
D|-0-0--0-0-0-0-0--0-0-0-2-2--2-2-2-2-2--2-2-2-|
A|-----------------------3-3--3-3-3-3-3--3-3-3-|
e|---------------------------------------------|
 ..evening..           ..trees..

   G
E|-3-3--3-3-3-3-3--3-3-3-3-3--3-3-3-3-3--3-3-3-|
B|-0-0--0-0-0-0-0--0-0-0-0-0--0-0-0-0-0--0-0-0-|
G|-0-0--0-0-0-0-0--0-0-0-0-0--0-0-0-0-0--0-0-0-|
D|-0-0--0-0-0-0-0--0-0-0-0-0--0-0-0-0-0--0-0-0-|
A|-2-2--2-2-2-2-2--2-2-2-2-2--2-2-2-2-2--2-2-2-|
e|-3-3--3-3-3-3-3--3-3-3-3-3--3-3-3-3-3--3-3-3-|
 ..ground..


E|-3-3--3-3-3-3-3--3-3-3-3-3--3-3-3-3-3--3-3-3-|
B|-0-0--0-0-0-0-0--0-0-0-0-0--0-0-0-0-0--0-0-0-|
G|-0-0--0-0-0-0-0--0-0-0-0-0--0-0-0-0-0--0-0-0-|
D|-0-0--0-0-0-0-0--0-0-0-0-0--0-0-0-0-0--0-0-0-|
A|-2-2--2-2-2-2-2--2-2-2-2-2--2-2-2-2-2--2-2-2-|
e|-3-3--3-3-3-3-3--3-3-3-3-3--3-3-3-3-3--3-3-3-|
 ..swear..                        ..wind..

   C
E|-0-0--0-0-0-0-0--0-0-0-0-0--0-0-0-0-0--0-0-0-|
B|-1-1--1-1-1-1-1--1-1-1-1-1--1-1-1-1-1--1-1-1-|
G|-0-0--0-0-0-0-0--0-0-0-0-0--0-0-0-0-0--0-0-0-|
D|-2-2--2-2-2-2-2--2-2-2-2-2--2-2-2-2-2--2-2-2-|
A|-3-3--3-3-3-3-3--3-3-3-3-3--3-3-3-3-3--3-3-3-|
e|---------------------------------------------|
 ..cutting..                      ..clothes..

   D                     C
E|-2-2--2-2-2-2-2--2-2-2-0-0--0-0-0-0-0--0-0-0-|
B|-3-3--3-3-3-3-3--3-3-3-1-1--1-1-1-1-1--1-1-1-|
G|-2-2--2-2-2-2-2--2-2-2-0-0--0-0-0-0-0--0-0-0-|
D|-0-0--0-0-0-0-0--0-0-0-2-2--2-2-2-2-2--2-2-2-|
A|-----------------------3-3--3-3-3-3-3--3-3-3-|
e|---------------------------------------------|
 ..attempt..           ..no..

   G
E|-3-3--3-3-3-3-3--3-3-3-3-3--3-3-3-3-3--3-3-3-|
B|-0-0--0-0-0-0-0--0-0-0-0-0--0-0-0-0-0--0-0-0-|
G|-0-0--0-0-0-0-0--0-0-0-0-0--0-0-0-0-0--0-0-0-|
D|-0-0--0-0-0-0-0--0-0-0-0-0--0-0-0-0-0--0-0-0-|
A|-2-2--2-2-2-2-2--2-2-2-2-2--2-2-2-2-2--2-2-2-|
e|-3-3--3-3-3-3-3--3-3-3-3-3--3-3-3-3-3--3-3-3-|
 ..outside..

   Am                    C
E|-0-0--0-0-0-0-0--0-0-0-0-0--0-0-0-0-0--0-0-0-|
B|-1-1--1-1-1-1-1--1-1-1-1-1--1-1-1-1-1--1-1-1-|
G|-2-2--2-2-2-2-2--2-2-2-0-0--0-0-0-0-0--0-0-0-|
D|-2-2--2-2-2-2-2--2-2-2-2-2--2-2-2-2-2--2-2-2-|
A|-0-0--0-0-0-0-0--0-0-0-3-3--3-3-3-3-3--3-3-3-|
e|---------------------------------------------|
 ..speak..             ..fire..

   Am         C          D
E|-0-0--0-0-0-0-0--0-0-0-3-3--3-3-3-3-3--3-3-3-|
B|-1-1--1-1-1-1-1--1-1-1-2-2--2-2-2-2-2--2-2-2-|
G|-2-2--2-2-2-0-0--0-0-0-3-3--3-3-3-3-3--3-3-3-|
D|-2-2--2-2-2-2-2--2-2-2-0-0--0-0-0-0-0--0-0-0-|
A|-0-0--0-0-0-3-3--3-3-3-----------------------|
e|---------------------------------------------|
 ..sparks.. ..from..   ..mouth..

   Am                    C
E|-0-0--0-0-0-0-0--0-0-0-0-0--0-0-0-0-0--0-0-0-|
B|-1-1--1-1-1-1-1--1-1-1-1-1--1-1-1-1-1--1-1-1-|
G|-2-2--2-2-2-2-2--2-2-2-0-0--0-0-0-0-0--0-0-0-|
D|-2-2--2-2-2-2-2--2-2-2-2-2--2-2-2-2-2--2-2-2-|
A|-0-0--0-0-0-0-0--0-0-0-3-3--3-3-3-3-3--3-3-3-|
e|---------------------------------------------|
 ..talk..              ..burdens..

   Am         C          D
E|-0-0--0-0-0-0-0--0-0-0-3-3--3-3-3-3-3--3-3-3-|
B|-1-1--1-1-1-1-1--1-1-1-2-2--2-2-2-2-2--2-2-2-|
G|-2-2--2-2-2-0-0--0-0-0-3-3--3-3-3-3-3--3-3-3-|
D|-2-2--2-2-2-2-2--2-2-2-0-0--0-0-0-0-0--0-0-0-|
A|-0-0--0-0-0-3-3--3-3-3-----------------------|
e|---------------------------------------------|
 ..won't..  ..all..    ..down..

   G
E|-3-3--3-3-3-3-3--3-3-3-3-3--3-3-3-3-3--3-3-3-|
B|-0-0--0-0-0-0-0--0-0-0-0-0--0-0-0-0-0--0-0-0-|
G|-0-0--0-0-0-0-0--0-0-0-0-0--0-0-0-0-0--0-0-0-|
D|-0-0--0-0-0-0-0--0-0-0-0-0--0-0-0-0-0--0-0-0-|
A|-2-2--2-2-2-2-2--2-2-2-2-2--2-2-2-2-2--2-2-2-|
e|-3-3--3-3-3-3-3--3-3-3-3-3--3-3-3-3-3--3-3-3-|
 ..swear..                        ..rain..

   C
E|-0-0--0-0-0-0-0--0-0-0-0-0--0-0-0-0-0--0-0-0-|
B|-1-1--1-1-1-1-1--1-1-1-1-1--1-1-1-1-1--1-1-1-|
G|-0-0--0-0-0-0-0--0-0-0-0-0--0-0-0-0-0--0-0-0-|
D|-2-2--2-2-2-2-2--2-2-2-2-2--2-2-2-2-2--2-2-2-|
A|-3-3--3-3-3-3-3--3-3-3-3-3--3-3-3-3-3--3-3-3-|
e|---------------------------------------------|
 ..covering..                     ..tight..

   D                     C
E|-2-2--2-2-2-2-2--2-2-2-0-0--0-0-0-0-0--0-0-0-|
B|-3-3--3-3-3-3-3--3-3-3-1-1--1-1-1-1-1--1-1-1-|
G|-2-2--2-2-2-2-2--2-2-2-0-0--0-0-0-0-0--0-0-0-|
D|-0-0--0-0-0-0-0--0-0-0-2-2--2-2-2-2-2--2-2-2-|
A|-----------------------3-3--3-3-3-3-3--3-3-3-|
e|---------------------------------------------|
 ..didn't..            ..laid..

   G
E|-3-3--3-3-3-3-3--3-3-3-3-3--3-3-3-3-3--3-3-3-|
B|-0-0--0-0-0-0-0--0-0-0-0-0--0-0-0-0-0--0-0-0-|
G|-0-0--0-0-0-0-0--0-0-0-0-0--0-0-0-0-0--0-0-0-|
D|-0-0--0-0-0-0-0--0-0-0-0-0--0-0-0-0-0--0-0-0-|
A|-2-2--2-2-2-2-2--2-2-2-2-2--2-2-2-2-2--2-2-2-|
e|-3-3--3-3-3-3-3--3-3-3-3-3--3-3-3-3-3--3-3-3-|
 ..afternoon..


E|-3-3--3-3-3-3-3--3-3-3-3-3--3-3-3-3-3--3-3-3-|
B|-0-0--0-0-0-0-0--0-0-0-0-0--0-0-0-0-0--0-0-0-|
G|-0-0--0-0-0-0-0--0-0-0-0-0--0-0-0-0-0--0-0-0-|
D|-0-0--0-0-0-0-0--0-0-0-0-0--0-0-0-0-0--0-0-0-|
A|-2-2--2-2-2-2-2--2-2-2-2-2--2-2-2-2-2--2-2-2-|
e|-3-3--3-3-3-3-3--3-3-3-3-3--3-3-3-3-3--3-3-3-|
 ..now..                          ..hypnotized..

   C
E|-0-0--0-0-0-0-0--0-0-0-0-0--0-0-0-0-0--0-0-0-|
B|-1-1--1-1-1-1-1--1-1-1-1-1--1-1-1-1-1--1-1-1-|
G|-0-0--0-0-0-0-0--0-0-0-0-0--0-0-0-0-0--0-0-0-|
D|-2-2--2-2-2-2-2--2-2-2-2-2--2-2-2-2-2--2-2-2-|
A|-3-3--3-3-3-3-3--3-3-3-3-3--3-3-3-3-3--3-3-3-|
e|---------------------------------------------|
 ..keep..                         ..silence..

   D                     C
E|-2-2--2-2-2-2-2--2-2-2-0-0--0-0-0-0-0--0-0-0-|
B|-3-3--3-3-3-3-3--3-3-3-1-1--1-1-1-1-1--1-1-1-|
G|-2-2--2-2-2-2-2--2-2-2-0-0--0-0-0-0-0--0-0-0-|
D|-0-0--0-0-0-0-0--0-0-0-2-2--2-2-2-2-2--2-2-2-|
A|-----------------------3-3--3-3-3-3-3--3-3-3-|
e|---------------------------------------------|
 ..growing..           ..always..

   G
E|-3-3--3-3-3-3-3--3-3-3-3-3--3-3-3-3-3--3-3-3-|
B|-0-0--0-0-0-0-0--0-0-0-0-0--0-0-0-0-0--0-0-0-|
G|-0-0--0-0-0-0-0--0-0-0-0-0--0-0-0-0-0--0-0-0-|
D|-0-0--0-0-0-0-0--0-0-0-0-0--0-0-0-0-0--0-0-0-|
A|-2-2--2-2-2-2-2--2-2-2-2-2--2-2-2-2-2--2-2-2-|
e|-3-3--3-3-3-3-3--3-3-3-3-3--3-3-3-3-3--3-3-3-|
 ..running..


   Am                    C
E|-0-0--0-0-0-0-0--0-0-0-0-0--0-0-0-0-0--0-0-0-|
B|-1-1--1-1-1-1-1--1-1-1-1-1--1-1-1-1-1--1-1-1-|
G|-2-2--2-2-2-2-2--2-2-2-0-0--0-0-0-0-0--0-0-0-|
D|-2-2--2-2-2-2-2--2-2-2-2-2--2-2-2-2-2--2-2-2-|
A|-0-0--0-0-0-0-0--0-0-0-3-3--3-3-3-3-3--3-3-3-|
e|---------------------------------------------|
 ..thoughts..          ..tired..

   Am         C          D
E|-0-0--0-0-0-0-0--0-0-0-3-3--3-3-3-3-3--3-3-3-|
B|-1-1--1-1-1-1-1--1-1-1-2-2--2-2-2-2-2--2-2-2-|
G|-2-2--2-2-2-0-0--0-0-0-3-3--3-3-3-3-3--3-3-3-|
D|-2-2--2-2-2-2-2--2-2-2-0-0--0-0-0-0-0--0-0-0-|
A|-0-0--0-0-0-3-3--3-3-3-----------------------|
e|---------------------------------------------|
 ..bullets....won't..  ..aim..

   Am                    C
E|-0-0--0-0-0-0-0--0-0-0-0-0--0-0-0-0-0--0-0-0-|
B|-1-1--1-1-1-1-1--1-1-1-1-1--1-1-1-1-1--1-1-1-|
G|-2-2--2-2-2-2-2--2-2-2-0-0--0-0-0-0-0--0-0-0-|
D|-2-2--2-2-2-2-2--2-2-2-2-2--2-2-2-2-2--2-2-2-|
A|-0-0--0-0-0-0-0--0-0-0-3-3--3-3-3-3-3--3-3-3-|
e|---------------------------------------------|
 ..face..              ..stern..

   Am         C          D
E|-0-0--0-0-0-0-0--0-0-0-3-3--3-3-3-3-3--3-3-3-|
B|-1-1--1-1-1-1-1--1-1-1-2-2--2-2-2-2-2--2-2-2-|
G|-2-2--2-2-2-0-0--0-0-0-3-3--3-3-3-3-3--3-3-3-|
D|-2-2--2-2-2-2-2--2-2-2-0-0--0-0-0-0-0--0-0-0-|
A|-0-0--0-0-0-3-3--3-3-3-----------------------|
e|---------------------------------------------|
 ..won't..  ..scared.. ..down..

   G
E|-3-3--3-3-3-3-3--3-3-3-3-3--3-3-3-3-3--3-3-3-|
B|-0-0--0-0-0-0-0--0-0-0-0-0--0-0-0-0-0--0-0-0-|
G|-0-0--0-0-0-0-0--0-0-0-0-0--0-0-0-0-0--0-0-0-|
D|-0-0--0-0-0-0-0--0-0-0-0-0--0-0-0-0-0--0-0-0-|
A|-2-2--2-2-2-2-2--2-2-2-2-2--2-2-2-2-2--2-2-2-|
e|-3-3--3-3-3-3-3--3-3-3-3-3--3-3-3-3-3--3-3-3-|
 ..sing..                         ..love..

   C
E|-0-0--0-0-0-0-0--0-0-0-0-0--0-0-0-0-0--0-0-0-|
B|-1-1--1-1-1-1-1--1-1-1-1-1--1-1-1-1-1--1-1-1-|
G|-0-0--0-0-0-0-0--0-0-0-0-0--0-0-0-0-0--0-0-0-|
D|-2-2--2-2-2-2-2--2-2-2-2-2--2-2-2-2-2--2-2-2-|
A|-3-3--3-3-3-3-3--3-3-3-3-3--3-3-3-3-3--3-3-3-|
e|---------------------------------------------|
 ..fight..                        ..takes..

   D                     C
E|-2-2--2-2-2-2-2--2-2-2-0-0--0-0-0-0-0--0-0-0-|
B|-3-3--3-3-3-3-3--3-3-3-1-1--1-1-1-1-1--1-1-1-|
G|-2-2--2-2-2-2-2--2-2-2-0-0--0-0-0-0-0--0-0-0-|
D|-0-0--0-0-0-0-0--0-0-0-2-2--2-2-2-2-2--2-2-2-|
A|-----------------------3-3--3-3-3-3-3--3-3-3-|
e|---------------------------------------------|
 ..won't..             ..won't..

   G
E|-3-3--3-3-3-3-3--3-3-3-3-3--3-3-3-3-3--3-3-3-|
B|-0-0--0-0-0-0-0--0-0-0-0-0--0-0-0-0-0--0-0-0-|
G|-0-0--0-0-0-0-0--0-0-0-0-0--0-0-0-0-0--0-0-0-|
D|-0-0--0-0-0-0-0--0-0-0-0-0--0-0-0-0-0--0-0-0-|
A|-2-2--2-2-2-2-2--2-2-2-2-2--2-2-2-2-2--2-2-2-|
e|-3-3--3-3-3-3-3--3-3-3-3-3--3-3-3-3-3--3-3-3-|
 ..sleep..


E|-3-3--3-3-3-3-3--3-3-3-3-3--3-3-3-3-3--3-3-3-|
B|-0-0--0-0-0-0-0--0-0-0-0-0--0-0-0-0-0--0-0-0-|
G|-0-0--0-0-0-0-0--0-0-0-0-0--0-0-0-0-0--0-0-0-|
D|-0-0--0-0-0-0-0--0-0-0-0-0--0-0-0-0-0--0-0-0-|
A|-2-2--2-2-2-2-2--2-2-2-2-2--2-2-2-2-2--2-2-2-|
e|-3-3--3-3-3-3-3--3-3-3-3-3--3-3-3-3-3--3-3-3-|
 ..write..                        ..walls..

   C
E|-0-0--0-0-0-0-0--0-0-0-0-0--0-0-0-0-0--0-0-0-|
B|-1-1--1-1-1-1-1--1-1-1-1-1--1-1-1-1-1--1-1-1-|
G|-0-0--0-0-0-0-0--0-0-0-0-0--0-0-0-0-0--0-0-0-|
D|-2-2--2-2-2-2-2--2-2-2-2-2--2-2-2-2-2--2-2-2-|
A|-3-3--3-3-3-3-3--3-3-3-3-3--3-3-3-3-3--3-3-3-|
e|---------------------------------------------|
 ..dance..                        ..all..

   D                     C
E|-2-2--2-2-2-2-2--2-2-2-0-0--0-0-0-0-0--0-0-0-|
B|-3-3--3-3-3-3-3--3-3-3-1-1--1-1-1-1-1--1-1-1-|
G|-2-2--2-2-2-2-2--2-2-2-0-0--0-0-0-0-0--0-0-0-|
D|-0-0--0-0-0-0-0--0-0-0-2-2--2-2-2-2-2--2-2-2-|
A|-----------------------3-3--3-3-3-3-3--3-3-3-|
e|---------------------------------------------|
 ..do..                ..takes..

   G
E|-3-3--3-3-3-3-3--3-3-3-3-3--3-3-3-3-3--3-3-3-|
B|-0-0--0-0-0-0-0--0-0-0-0-0--0-0-0-0-0--0-0-0-|
G|-0-0--0-0-0-0-0--0-0-0-0-0--0-0-0-0-0--0-0-0-|
D|-0-0--0-0-0-0-0--0-0-0-0-0--0-0-0-0-0--0-0-0-|
A|-2-2--2-2-2-2-2--2-2-2-2-2--2-2-2-2-2--2-2-2-|
e|-3-3--3-3-3-3-3--3-3-3-3-3--3-3-3-3-3--3-3-3-|
 ..you..


E|-3-3--3-3-3-3-3--3-3-3-3-3--3-3-3-3-3--3-3-3-|
B|-0-0--0-0-0-0-0--0-0-0-0-0--0-0-0-0-0--0-0-0-|
G|-0-0--0-0-0-0-0--0-0-0-0-0--0-0-0-0-0--0-0-0-|
D|-0-0--0-0-0-0-0--0-0-0-0-0--0-0-0-0-0--0-0-0-|
A|-2-2--2-2-2-2-2--2-2-2-2-2--2-2-2-2-2--2-2-2-|
e|-3-3--3-3-3-3-3--3-3-3-3-3--3-3-3-3-3--3-3-3-|
 ..sing..                         ..love..

   C
E|-0-0--0-0-0-0-0--0-0-0-0-0--0-0-0-0-0--0-0-0-|
B|-1-1--1-1-1-1-1--1-1-1-1-1--1-1-1-1-1--1-1-1-|
G|-0-0--0-0-0-0-0--0-0-0-0-0--0-0-0-0-0--0-0-0-|
D|-2-2--2-2-2-2-2--2-2-2-2-2--2-2-2-2-2--2-2-2-|
A|-3-3--3-3-3-3-3--3-3-3-3-3--3-3-3-3-3--3-3-3-|
e|---------------------------------------------|
 ..fight..                        ..takes..

   D                     C
E|-2-2--2-2-2-2-2--2-2-2-0-0--0-0-0-0-0--0-0-0-|
B|-3-3--3-3-3-3-3--3-3-3-1-1--1-1-1-1-1--1-1-1-|
G|-2-2--2-2-2-2-2--2-2-2-0-0--0-0-0-0-0--0-0-0-|
D|-0-0--0-0-0-0-0--0-0-0-2-2--2-2-2-2-2--2-2-2-|
A|-----------------------3-3--3-3-3-3-3--3-3-3-|
e|---------------------------------------------|
 ..won't..             ..won't..

...G
E|-3-3--3-3-3-3-3--3-3-3-3-3--3-3-3-3-3--3-3-3---||
B|-0-0--0-0-0-0-0--0-0-0-0-0--0-0-0-0-0--0-0-0---||
G|-0-0--0-0-0-0-0--0-0-0-0-0--0-0-0-0-0--0-0-0---||
D|-0-0--0-0-0-0-0--0-0-0-0-0--0-0-0-0-0--0-0-0---||
A|-2-2--2-2-2-2-2--2-2-2-2-2--2-2-2-2-2--2-2-2---||
e|-3-3--3-3-3-3-3--3-3-3-3-3--3-3-3-3-3--3-3-3---||
 ..sleep
Tap to rate this tab
# A B C D E F G H I J K L M N O P Q R S T U V W X Y Z