Song name
# A B C D E F G H I J K L M N O P Q R S T U V W X Y Z

Tilt - Libel tab

-------------------------------------------------------------------------------
                             Libel - TiLt
-------------------------------------------------------------------------------
Tabbed by: Ilikegrunge
Email:

Tuning: standard
Into/First Verse- guitar doesn't come in until "inside my head"
e|-----------------------------------------------------------------------|
B|-----------------------------------------------------------------------|
G|-----------------4-2---------------------------------------------------|
D|-----------------4-2-6-4-----------------------------------------------|
A|-----------------2-0-6-4-----------------------------------------------|
E|---------------------4-2-----------------------------------------------|
First Chorus
e|-----------------------------------------------------------------------|
B|-----------------------------------------------------------------------|
G|----------------------4-4444-------------------------------------------|
D|--2---2222--4-4444----4-4444--6-6666----2-2222---4-4444----------------|
A|--2---2222--4-4444----2-2222--6-6666----2-2222---4-4444----------------|
E|--0---0000--2-2222------------4-4444----0-0000---2-2222----------------|

e|-----------------------------------------------------------------------|
B|-----------------------------------------------------------------------|
G|---4xx4xx4x4--xx44-44--------------------------------------------------|
D|---4xx4xx4x4--xx44-44--------------------------------------------------|
A|---2xx2xx2x2--xx22-22--(x2)--------------------------------------------|
E|-----------------------------------------------------------------------|
Second Verse
e|--------------------------------|
B|--------------------------------|
G|----9-------8------11-----------|
D|----9-------8------11-----------| x3
A|----7-------6------9------------|
E|--------------------------------|

e|-----------------------------------------|
B|-----------------------------------------|
G|----9------8----4-2----------------------|
D|----9------8----4-2--6-4-----------------|
A|----7------6----2-0--6-4-----------------|
E|---------------------4-2-----------------|
Second Chorus
e|-------------------------------------------------------|
B|-------------------------------------------------------|
G|-------------------4-4444------------------------------|
D|--2-2222--4-4444---4-4444--6-6666--2-2222---4-4444-----|
A|--2-2222--4-4444---2-2222--6-6666--2-2222---4-4444-----|
E|--0-0000--2-2222-----------4-4444--0-0000---2-2222-----|

e|---------------------------------|
B|---------------------------------|
G|--4-44444444-44444444------------|
D|--4-44444444-44444444------------| x2
A|--2-22222222-22222222------------|
E|---------------------------------|
Bridge (the part where she sings "follow me...")
e|-----------------------------------------|
B|-----------------------------------------|
G|--1-1-1-1-1111-1-1-9-9-9864-44-4444------| here the ones are elevens
D|--1-1-1-1-1111-1-1-9-9-9864-44-4444------| because it takes up less room
A|--9-9-9-9 9999-9 9-7-7-7642-22-2222------| x 3
E|-----------------------------------------|


e|----------------------------------------------------|
B|----------------------------------------------------|
G|---1-1-1-1-1111-1-1-9-9-98-8-1-11-1111--------------|
D|---1-1-1-1-1111-1-1-9-9-98-8-1-11-1111--------------| same thing with the 
A|---9-9-9-9 9999-9 9-7-7-76-6-9-99-9999--------------| ones here folks
E|----------------------------------------------------|
After this play:
the Second Chorus again
then the Bridge
then end with...
e|-------------------------------------------------------|
B|-------------------------------------------------------|
G|-------------------4-4444------------------------------|
D|--2-2222--4-4444---4-4444--6-6666--2-2222---4-4444-----|
A|--2-2222--4-4444---2-2222--6-6666--2-2222---4-4444-----|
E|--0-0000--2-2222-----------4-4444--0-0000---2-2222-----|

e|---------------------------------|
B|---------------------------------|
G|--4-44444444-44444444------------|
D|--4-44444444-44444444------------| 
A|--2-22222222-22222222------------|
E|---------------------------------|

e|-------------------------------------------------------|
B|-------------------------------------------------------|
G|-------------------4-4444------------------------------|
D|--2-2222--4-4444---4-4444--6-6666--2-2222---4-4444-----|
A|--2-2222--4-4444---2-2222--6-6666--2-2222---4-4444-----|
E|--0-0000--2-2222-----------4-4444--0-0000---2-2222-----|

e|-------------------------------------------|
B|-------------------------------------------|
G|---4xx4xx4x4--xx44-44\---------------------|
D|---4xx4xx4x4--xx44-44\---------------------|
A|---2xx2xx2x2--xx22-22\---------------------|
E|-------------------------------------------|
************************************

| /   slide up
| \   slide down
| h   hammer-on
| p   pull-off
| ~   vibrato
| +   harmonic
| x   Mute note
| b   Bend
| pb  Pre-bend
| br  Bend release
| pbr Pre-bend release
| brb Bend release bend

************************************
Tap to rate this tab
# A B C D E F G H I J K L M N O P Q R S T U V W X Y Z