Guitaretab - guitar tabs
Song name
# A B C D E F G H I J K L M N O P Q R S T U V W X Y Z
Home / T / Tilt / Bad Place tab

Tilt - Bad Place tab

-----------------------------------------------------------------------------
			Bad Place - Tilt
-----------------------------------------------------------------------------
Tabbed by:brent (wAnNabE47)
Email:
[ Tab from: http://www.guitaretab.com/t/tilt/48026.html ]
Tuning:standard tuning-distortion throughout.
Intro:
e|---------------------------------------------------------------------------
B|---------------------------------------------------------------------------
G|--7777-12-10-7777-12-10-7777-12-10-hold note-------------------------------
D|---------------------------------------------------------------------------
A|---------------------------------------------------------------------------
E|---------------------------------------------------------------------------
put her in a car...(main riff)
e|---------------------------------------------------------------------------
B|---------------------------------------------------------------------------
G|---------------------------------------------------------------------------
D|---------------------------------------------------------------------------
A|-9-7-5-5-5-5-5----X4-------------------------------------------------------
E|-7-5-3-3-3-3-3-------------------------------------------------------------
there I'll sit and i'll stare...
(chorus)
e|---------------------------------------------------------------------------
B|---------------------------------------------------------------------------
G|---------------------------------------------------------------------------
D|---------------------------------------------------------------------------
A|-7-5-7-9-7-5-7-9-9-9-9-9-9-9-----------------------------------------------
E|-5-3-5-7-5-3-5-7-7-7-7-7-7-7-----------------------------------------------
Then main riff 
just listen to the song for exact strumming and timing. I dont think this is 
exact but it is pretty close. 

=============================================================================
Related for Bad Place tab
×
Bad Place