Song name
# A B C D E F G H I J K L M N O P Q R S T U V W X Y Z

Tilt - Czad Czad Czad tab

Riff 1

||---------------------||
||-*-----------------*-||
||---------------------||
||---------------------||
||-*---7---5---4---5-*-||
||---0-5-0-3-0-2-0-3---||

Riff 2

||----------------------------------------------------||
||----------------------------------------------------||
||----------------------------------------------------||
||---3--3-3-3-3--3--3-3-3-3--3--3-3-3-3--3--3-3-3-3---||
||---1--1-1-1-1--1--1-1-1-1--1--1-1-1-1--1--1-1-1-1---||
||----------------------------------------------------||

||----------------------------------------------------||
||----------------------------------------------------||
||----------------------------------------------------||
||---7--7-7-7-7--7--7-7-7-7--7--7-7-7-7-----7-----6---||
||---5--5-5-5-5--5--5-5-5-5--5--5-5-5-5--0--5--0--4---||
||----------------------------------------------------||
Tap to rate this tab
# A B C D E F G H I J K L M N O P Q R S T U V W X Y Z