Song name
# A B C D E F G H I J K L M N O P Q R S T U V W X Y Z

Tim And Eric - Wipe My Butt tab

-------------------------------------------------------------------------------
			     Wipe My Butt (feat. The Shins)  - Tim and Eric
-------------------------------------------------------------------------------
Tabbed by: Taylor Kirkham

Tuning: Standard

This is my first tab, I hope you enjoy it. I'm still a little unsure with the 
solo, but I'm sure you'll figure it out.

Progression that goes mostly throughout the song:

I strum the suspended 4th once then switch to the A chord.

Guitar 1
          Bm        D          G      Asus4     A
         
e|--------2---------3----------3--------0-------0-----------------------------|
B|--------3---------2----------0--------3-------2-----------------------------|
G|--------4---------3----------0--------2-------2-----------------------------|
D|--------4---------0----------0--------2-------2-----------------------------|
A|--------2--------------------2--------0-------0-----------------------------|
E|-----------------------------3---------------------------------------------|

Guitar 2

e|---------------------------------------------------------------------------|
B|---------------------------------------------------------------------------|
G|----------------------------------------------2--2h4--2--2-----------------|
D|--------------------------4--2--4--2--4------------------------------------|
A|--------------0--2---------------------------------------------------------|
E|----0--2-------------------------------------------------------------------|

Guitar 2 (solo) Guitar 1 just plays F#m throughout.

     F#m

e|----2----------------------2--3--2--0--------------------------------------|
B|----2----------2h3h2--2-------------------3--5--3--2--0----------2--3------|
G|----2-----------------------------------------------------4--2-------------|
D|----4----------------------------------------------------------------------|
A|----4----------------------------------------------------------------------|
E|----2----------------------------------------------------------------------|

Then

Guitar 1

      G     A

e|----3-----5----------------------------------------------------------------|
B|----3-----5----------------------------------------------------------------|
G|----4-----6----------------------------------------------------------------|
D|----5-----7----------------------------------------------------------------|
A|----5-----7----------------------------------------------------------------|
E|----3-----5----------------------------------------------------------------|


Guitar 2 (this is played during the G & A progression)


e|---------------------------------------------------------------------------|
B|----3h5--3---3\2/3---------------------------------------------------------|
G|---------------------------------------------------------------------------|
D|---------------------------------------------------------------------------|
A|---------------------------------------------------------------------------|
E|---------------------------------------------------------------------------|

Then repeat main chord progression until hilarity ensues.

Thanks!

************************************

| /   slide up
| \   slide down
| h   hammer-on
| p   pull-off
| ~   vibrato
| +   harmonic
| x   Mute note
| b   Bend
| pb  Pre-bend
| br  Bend release
| pbr Pre-bend release
| brb Bend release bend

************************************
Tap to rate this tab
 
# A B C D E F G H I J K L M N O P Q R S T U V W X Y Z