Song name
# A B C D E F G H I J K L M N O P Q R S T U V W X Y Z

Tim Armstrong - Translator tab

-------------------------------------------------------------------------------
			     TRANSLATOR - Tim Armstrong
-------------------------------------------------------------------------------

Tabbed by: Jon Brown
Email: 924174156@gsc.edu

Tuning: Standard


The entire song is just D and A


Intro:
e|---------------------------------------------------------------------------|
B|---------------------------------------------------------------------------|
G|---------------------------------------------------------------------------|
D|---------------------------------------------------------------------------|
A|---------------------------------------------------------------------------|
E|-4-5-5-5--4-5-5-5--4-5-5-5--4-5-5-5----------------------------------------|


Here are a few of the licks Tim plays right before the singing starts
(most of these can just be improvised):
e|---------------------------------------------------------------------------|
B|---------------------------------------------------------------------------|
G|---------------------------------------------------------------------------|
D|---------------------------------------------------------------------------|
A|--7-7-7-5-4--5--------------7-7-7-5-4--5-----------------------------------|
E|---------------------------------------------------------------------------|

e|---------------------------------------------------------------------------|
B|-12-12-12-12-12-12-12-12-12--10---12-12-12-12-12-12-12-12-12--10-----------|
G|---------------------------------------------------------------------------|
D|---------------------------------------------------------------------------|
A|---------------------------------------------------------------------------|
E|---------------------------------------------------------------------------|

e|---------------------------------------------------------------------------|
B|-12-12-12-12-12-12-12-12-12--10------10------------------------------------|
G|---------------------------------12------11--------------------------------|
D|------------------------------------------------9--7-----7-----------------|
A|------------------------------------------------------9--------------------|
E|---------------------------------------------------------------------------|


Guitar solo:
e|---------------------------------------------------------------------------|
B|--10-----------------------------------------------------------------------|
G|-----9-12-11-9-----9--------------------------9-12-11-9----9---------------|
D|----------------12----9---11-11-11--12-12---------------12---9-------------|
A|---------------------------------------------------------------------------|
E|---------------------------------------------------------------------------|

e|---------------------------------------------------------------------------|
B|---------------------------------------------------------------------10-10-|
G|-----------------------------------------------------------------11--------|
D|-11-11-11-11-11-9--9-9-7--7-7---11-11-11-11-11-9--9-9-7--7-7---------------|
A|---------------------------------------------------------------------------|
E|---------------------------------------------------------------------------|

e|---------------------------------------------------------------------------|
B|---------------------------------------------------------------------------|
G|----9-7---9-9-9-9-9-9--7-7---9-9-9-9-9-9--7-7---9-9-9-9-9-9-7-7------------|
D|--0------------------------------------------------------------------------|
A|---------------------------------------------------------------------------|
E|---------------------------------------------------------------------------|

e|---------------------------------------------------------------------------|
B|--10-10-10-10--8-------8--10-----------------------------------------------|
G|------------------9-9------------------------------------------------------|
D|---------------------------------------------------------------------------|
A|---------------------------------------------------------------------------|
E|---------------------------------------------------------------------------|


===============================================================================
Tap to rate this tab
 
# A B C D E F G H I J K L M N O P Q R S T U V W X Y Z