Song name
# A B C D E F G H I J K L M N O P Q R S T U V W X Y Z

Tim Bendzko - Ich Hor Nicht Auf tab

-------------------------------------------------------------------------------
			     Ich hör nicht auf - Tim Bendzko
-------------------------------------------------------------------------------
Tabbed by: kust_st

Tuning: Standard
Capo 1st fred. Tap is relativ to capo.

e|------0h2/4--7-5-4-2-4-0---------0h2/4--7-5-4-7-0---------|
B|--0h2------------------------0h2------------------2-------|
G|----------------------------------------------------------|
D|----------------------------------------------------------|
A|----------------------------------------------------------|
E|----------------------------------------------------------|

The most of the song (verse and chorus) consists of only two chors: Em and A.
The bridge goes like this:
________________
                      F#m
Ich hör nicht auf die Stimme die sagt ...
                                 C#m
die immer wieder sagt ... gib es auf.

Das macht doch keinen Sinn .. sieh mal genauer hin.
                      F#m
Ich hör nicht auf die Stimme die sagt ..
                                  H
die immer wieder sagt ... gib es auf.
________________


  Em        A        F#m       C#m        H
--0--     --0--     --2--     --4--     --2--|
--0--     --2--     --2--     --5--     --4--|
--1--     --2--     --2--     --6--     --4--|
--2--     --2--     --4--     --6--     --4--|
--2--     --0--     --4--     --4--     --2--|
--0--     --x--     --2--     --x--     --x--|


To make the song much more juicy, pick the chords during the verse and play full chords 
in the chorus.
Enjoy the song.


************************************
| /   slide up
| \   slide down
| h   hammer-on
| p   pull-off
| ~   vibrato
| +   harmonic
| x   Mute note
| b   Bend
| pb  Pre-bend
| br  Bend release
| pbr Pre-bend release
| brb Bend release bend

************************************
Tap to rate this tab
 
# A B C D E F G H I J K L M N O P Q R S T U V W X Y Z