Song name
# A B C D E F G H I J K L M N O P Q R S T U V W X Y Z

Tim Bendzko - Wovon Sollen Wir Traeumen tab

"Wovon sollen wir träumen" von Frida Gold im Akustik-Cover von Tim Bendzko.

Link zum Original von Tim Bendzko:
http://www.youtube.com/watch?v=6uUQGL3iJus


CAPO III
AKKORDE:
     C1   C2   F    G    Em   Am     
e----0----0----1----3----0----0
b----1----1----1----3----0----1
g----0----0----2----4----0----2
D----2----2----3----5----2----2
A----0----0----3----5----2----0
E----0----3----1----3----0----0



Strophen:

  C1                         C2               
e|----------------|         |----------------|
b|--1-----0-------|         |--1-----0-------|
g|----0-----0---0-|         |----0-----0---0-|
D|------2-----2---| 4x      |------2-----2---|   4x
A|----------------|         |----------------|
E|0---------------|         |3---------------|

  C1                         C2               
e|----------------|         |----------------|
b|--1-----0-------|         |--1-----0-------|
g|----0-----0---0-|         |----0-----0---0-|
D|------2-----2---| 4x      |------2-----2---|   4x
A|----------------|         |----------------|
E|0---------------|         |3---------------|



Refrain 1 (2x) & 3 (4x):
 
  F                G                Em               Am
e|----------------|----------------|----------------|----------------|
b|--1-----1-------|--3-----3-------|--0-----0-------|--1-----1-------|
g|----2-----2---2-|----4-----4---4-|----0-----0---0-|----2-----2---1-|
D|------3-----3---|------5-----5---|------2-----2---|------2-----2---|
A|----------------|----------------|----------------|0---------------|
E|1---------------|3---------------|0---------------|----------------|

Refrain 2: F G Em Am als Akkorde spielen (7x)


tabbed by snoopyTM
Tap to rate this tab
# A B C D E F G H I J K L M N O P Q R S T U V W X Y Z