Song name
# A B C D E F G H I J K L M N O P Q R S T U V W X Y Z

Tim Burtons - Salls Song tab

ktmboy601@yahoo.com
acoustic459
please rate or comment!

|-0--3--5--7--0--3---0--1----1--5--7--8--5--2-----0-|
|----------------------------------------------4----|
|---------------------------------------------------|
|---------------------------------------------------|
|---------------------------------------------------|
|---------------------------------------------------|

-7--7--8--10--3--5--7--5---5--5--7--8--5--2----0----|
---------------------------------------------4------|
----------------------------------------------------|
----------------------------------------------------|
----------------------------------------------------|
----------------------------------------------------|

-7--7--8--10--3--5--7--5---5--5--7--8--7--2--2--5--5--3-|
--------------------------------------------------------|
--------------------------------------------------------|
--------------------------------------------------------|
--------------------------------------------------------|
--------------------------------------------------------|

-8--5--2--0--0---0----0--2--3--0---0----0--2--3--0--|
--------------------4-----------------4-------------|
----------------------------------------------------|
----------------------------------------------------|
----------------------------------------------------|
----------------------------------------------------|

Do all of this twice and there you have it.
Tap to rate this tab
# A B C D E F G H I J K L M N O P Q R S T U V W X Y Z