Song name
# A B C D E F G H I J K L M N O P Q R S T U V W X Y Z

Tim Burtons - Sallys Song tab

Help us improve GuitareTab! Take a short survey!
|--------4--6------------------4--6--7--4-----------------------|
|--4--7--------4--7--4--5---5--------------6--3--4--------------|
|---------------------------------------------------------------|
|---------------------------------------------------------------|
|---------------------------------------------------------------|
|---------------------------------------------------------------|

|--6--6--7--9-----4--6--4---4--6--7--7--4-----------------------|
|--------------7---------------------------6--3--4--------------|
|---------------------------------------------------------------|
|---------------------------------------------------------------|
|---------------------------------------------------------------|
|---------------------------------------------------------------|

|--6--6--7--9-----4--6--4---4--6--7--7--6-------4--4------------|
|--------------7---------------------------6--7-------7---------|
|---------------------------------------------------------------|
|---------------------------------------------------------------|
|---------------------------------------------------------------|
|---------------------------------------------------------------|

|--7--4---------------------------------------------------------|
|--------5--4---4--3--4--6--7--4---4--3--4--6--7--4-------------|
|---------------------------------------------------------------|
|---------------------------------------------------------------|
|---------------------------------------------------------------|
|---------------------------------------------------------------|
Related for Sallys Song tab