Song name
# A B C D E F G H I J K L M N O P Q R S T U V W X Y Z

Tim Christensen - Kings Garden Acoustic tab

    ______________________________________________________
   / Tim Christensen                                     /
  / King's Garden (acoustic)                            /
 / Live at Abbey Road Studios: Extra Acoustic Session  /
/_____________________________________________________/

This guitar part is absolutely amazing! Enjoy :)


(Capo on 2. fret)
(relative key: G major / actual key: A major)

 Intro:
  G6                                             G                   G6
:------------|---------------------------------|-------------------------------|
:---------0--|-------0-----------0-------------|-------0-----0-----0--------0--|
:------------|-----0-0-----0---0-0-------------|-------0-----0-----0-----------|
:-----2------|-2---2-2-2---2---2-2-0---0h2-----|-0---0-0-0---0---0-0-----2-----|
:-5----------|-5---5-5-5---5---5-5-5---5---5---|-5---5-5-5---5---5-5-5---------|
:------------|-3---3-3-3---3---3-3-3---3---3---|-3---3-3-3---3---3-3-----------|

  G6                                G                   G6
|---------------------------------|-------------3------------------|
|---------------------------------|-------0-----0--------------0---|
|-------0-----0---0-0-------------|-------0-----0------------------|
|-2-----2-2---2---2-2-0---0h2-----|-0-----0-0---0-----------2------|
|-5-----5-5---5---5-5-5---5---5---|-5-----5-5---5-------5----------|
|-3-----3-3---3---3-3-3---3---3---|-3-----3-3---3------------------|



 1. + 2. Verse:
    G6                               Cmaj7
||---------------------------------|---------------------------------|
||o-------0-----------0------------|-0-----------------0-------------|
||--------0-----0---0-0------------|-0---0---0---0---0-0-0---0-------|
||--2-----2-2---2---2-2-----2------|-2---2---2---2---2-2-2---2-------|
||o-5-----5-5---5---5-5-5----------|-3---3---3---3---3-3-3---3-------|
||--3-----3-3---3---3-3------------|-3---3---3---3---3-3-3---3-------|

  D7sus4      D7                    B7/D#
|-----3-3-----2---2-2-----2-------|---------------------------------|
|-----1-1-----1---1-1-1---1-------|-----------------------------0---|
|-----2-2-2---2---2-2-2---2-------|-4---4---5---4---4-4-----0-------|
|-0---0-0-0---0---0-0-0---0-------|-7---7---7---7---7-7-4-----------|
|---------------------------------|-6---6---6---6---6-6-6-----------|
|---------------------------------|---------------------------------|

  Em                                Cmaj7
|-----0-0-----0-------------------|-----------------0-0-------------|
|-----0-0-----0---0-0-----0-------|-------0---------0-0-----0-------|
|-----0-0-----0---0-0-----0-------|-0-----0-----0---0-0-----0-------|
|-5-------5---5---5-5-4---5-------|-2-----2-2---2---2-2-2---2-------|
|-7-------7---7---7-7-7---7-------|-3-----3-3---3-------3---3-------|
|-0-------0---0-------------------|-3-----3-3---3-------3---3-------|

                                   1.
  D7sus4                            D7
|-3---3-3-----3---3-3-----3-------|-2---2-2-----2--------------------||
|-1---1-1-----1---1-1-----1-------|-1---1-1-----1---------------0---o||
|-2---2-2-----2---2-2-----2-------|-2---2-2-----2--------------------||
|-0---0-0-0---0---0-0-0---0---0---|-0---0-0-0---0-----------2--------||
|---------------------------------|---------------------/5----------o||
|---------------------------------|----------------------------------||

 2.
  D7+5
|---------------------------------|
|-1^------------------------------|
|-3^------------------------------|
|-0^------------------------------|
|---------------------------------|
|---------------------------------|



 Chorus:
  C6/G        G                     C6/G        G
|-------3-----------3-----------3-|-------3-----------3-------------|
|-1-----1-----0---0-0-----0---0-0-|-1-----1-----0---0-0-----0---0---|
|-0-----0-----0---0-0-----0---0-0-|-0-----0-----0---0-0-----0---0---|
|-2-----2-2---0---0-0-0---0---0-0-|-2-----2-2---0---0-0-0---0---0---|
|-x-----------x-------------------|-x-----------x-------------------|
|-3-------3---3---3---3---3---3-3-|-3-------3---3---3---3---3---3---|

  A11         Am7                   C               D7
|-0---0-0-----0---0-0-0---3---3---|-0-----0-0---0---2-2-----2-------|
|-3---3-3-3---1---1-1-1---1---1---|-1-----1-1---1---1-1-----1-------|
|-0---0-0-0---0---0-0-0---0---0---|-0-----0-0---0---2-2-2---2---2---|
|-2---2-2-2---2---2-2-2---2---2---|-2-----2-2---2---0-0-0---0---0---|
|-0-------0---0-------0---0---0---|-3-------3---3-------------------|
|---------------------------------|-3-------3---3-------------------|

  C6/G        G                     C6/G        G
|-------3-----------3-----------3-|-------3-----------3-------------|
|-1-----1-----0---0-0-----0---0-0-|-1-----1-----0---0-0-----0---0---|
|-0-----0-----0---0-0-----0---0-0-|-0-----0-----0---0-0-----0---0---|
|-2-----2-2---0---0-0-0---0---0-0-|-2-----2-2---0---0-0-0---0---0---|
|-x-----------x-------------------|-x-----------x-------------------|
|-3-------3---3---3---3---3---3-3-|-3-------3---3---3---3---3---3---|

  Am7                               Cmaj7           D7
|-0---0-0-----0---0-0-0---0---0-0-|-------------------------2-------|
|-1---1-1-1---1---1-1-1---1---1-1-|---------0-------1-------1-------|
|-0---0-0-0---0---0-0-0---0---0-0-|---------0-------2---2---2-------|
|-2---2-2-2---2---2-2-2---2---2-2-|-2---2---2---2---0---0---0---0---|
|-0-------0---0-------0---0---0-0-|-3---3---3---3-------------------|
|---------------------------------|-3---3---3---3-------------------|


 Interlude:
  Eb6                               D7sus4          D7  G6
|-------------3---------------3---|-------------3---2---------------|
|---------1---------------1-------|---------1-------------------0---|
|-----3---------------3-----------|-----2---------------------------|
|-1---------------1---------------|-0-----------------------2-------|
|---------------------------------|---------------------/5----------|
|---------------------------------|---------------------------------|



 3. Verse:
(Notice the variations in bar 2, 7 and 8.)
  G6                               Cmaj7
|--------------------------------|---------------------------------|
|-------0-----------0------------|-0-----------0-----0-------------|
|-------0-----0---0-0------------|-0---0---0---0---0-0-0---0---0---|
|-2-----2-2---2---2-2-----2------|-2---0---2---2---2-2-0---2---0---|
|-5-----5-5---5---5-5-5----------|-3---3---3---3---3-3-3---3---3---|
|-3-----3-3---3---3-3------------|-3---3---3---3---3-3-3---3---3---|

  D7sus4      D7                    B7/D#
|-----3-3-----2---2-2-----2-------|---------------------------------|
|-----1-1-----1---1-1-1---1-------|-----------------------------0---|
|-----2-2-2---2---2-2-2---2-------|-4---4---5---4---4-4-----0-------|
|-0---0-0-0---0---0-0-0---0-------|-7---7---7---7---7-7-4-----------|
|---------------------------------|-6---6---6---6---6-6-6-----------|
|---------------------------------|---------------------------------|

  Em                                Cmaj7
|-----0-0-----0-------------------|-----------------0-0-------------|
|-----0-0-----0---0-0-----0-------|-------0---------0-0-----0-------|
|-----0-0-----0---0-0-----0-------|-0-----0-----0---0-0-----0-------|
|-5-------5---5---5-5-4---5-------|-2-----2-2---2---2-2-2---2-------|
|-7-------7---7---7-7-7---7-------|-3-----3-3---3-------3---3-------|
|-0-------0---0-------------------|-3-----3-3---3-------3---3-------|

  D7                                B7/D#           D7  G6
|-2-----2-----2-----2-----2-------|---------2-----------------------|
|-1-----1-----1-----1-----1-------|---------0---0---------------0---|
|-2-----2-----2-----2-----2-------|-----2-------2-------------------|
|-0-----0-0---0-----0-0---0---0---|-1---------------0-------2-------|
|---------------------------------|---------------------/5----------|
|---------------------------------|---------------------------------|



 4. Verse:         similar to 1. Verse

 Chorus:           similar to previous

 Mellontron solo:  similar to 1. Verse

 Extended Chorus:  Play the chorus, then repeat the last half.



 Outro:
                                                        Rit.............
  Eb6                               D7sus4          D7  G6
|-------------3---------------3---|-------------3---2---------------|------:
|---------1---------------1-------|---------1-------------------0---|-0^---:
|-----3---------------3-----------|-----2---------------------------|-0^---:
|-1---------------1---------------|-0-----------------------2-------|-2^---:
|---------------------------------|---------------------/5----------|-5^---:
|---------------------------------|---------------------------------|-3^---:



 LYRICS
**********
Is it true?
That the pain inside me could be you
What I thought was all gone lingers on
Always slightly out of reach

Picture this
Suddenly you don't know what you miss
But whatever it is, it's a word
Always slightly overheard these days

But in Kings Garden I'll find my way
From Kings Garden to a brave new day
In Kings Garden
King's gotten over the dream

I belive
Between you and the moon I can see
How I thought it would be but a cloud's
Always slightly in the way

Are you sad?
Now our future belongs to the past
Like an old photograph still remains
Always slightly out of focus now

But in Kings Garden I'll find my way
From Kings Garden to a brave new day
In Kings Garden
King's gotten over the dream

Yes in Kings Garden we'll mend our wings
From Kings Garden we'll fly again
In Kings Garden
King's got another dream
In Kings Garden
The King's gotten over his queen


+--------------------------------------------------------------------------+
Jon Sebastian Frederiksen - 30th /August /10
Just mail me at Maitinin@gmail.com with questions, comments and corrections!
Tap to rate this tab
 
# A B C D E F G H I J K L M N O P Q R S T U V W X Y Z