Song name
# A B C D E F G H I J K L M N O P Q R S T U V W X Y Z

Tim Christensen - How Far You Go tab

   ___________________
  / Tim Christensen  /  This is transcribed from the acoustic version on the
 / How Far You Go   /  "Live at Abbey Road Studios: Extra Acoustic Session".
/__________________/  Enjoy this wonderfully wondeful song!

 Capo on 3rd fret in this acoustic version [the chords are relative to capo].
(Capo on 4th fret in the Honeyburst album version.)



 Verse:
 6/8
    G           Csus2(#11)    G           Csus2(#11)
||--3^----------2^----------|-3^----------2^----------|
||o-3^----------3^----------|-3^----------3^----------|
||--0^----------0^----------|-0^----------0^----------|
||--0^----------x^----------|-0^----------x^----------|
||o-2^----------3^----------|-2^----------3^----------|
||--3^----------------------|-3^----------------------|

  G           Em9           Am7
|-3^----------2^----------|-0-----0-----0---0-0-0-0-|
|-3^----------3^----------|-0h1---1-----1---1-1-1-1-|
|-0^----------0^----------|-0-----0-----0---0-0-0-0-|
|-0^----------2^----------|-2-----2-----2---2-2-2-2-|
|-2^----------2^----------|-0-------0---0---0-0-0-0-|
|-3^----------0^----------|-------------------------|

  D7                        B7
|-----------------2---2-2-|-----------------2---2---|
|-----------------1---1-1-|-----------------0---0---|
|-----------------2---2-2-|-----------------2---2---|
|-------------0---0---0-0-|-----------------1---1---|
|-0---2---3---------------|-----0---1---2---2---2---|
|-------------------------|-3-----------------------|

  Csus2(#11)  Csus2        Csus2(#11) Cadd2
|-2---2-2-----3-----3-----|-2-------0---------0------||
|-3---3-3-----3-----3-----|-3-------3---------3-----o||
|-0---0-0-----0-----0-----|-0-------0---------0------||
|-x-----------------------|--------------------------||
|-3-------3---3-----3-3---|-3---3-------3-------3---o||
|-------------------------|--------------------------||

  Am7/13                    D7sus4
|-2-----2-----2---2-2-2-2-|-----3-3-----3---3-3-3---|
|-1-----1-----1---1-1-1-1-|-----1-1-----1---1-1-1---|
|-0-----0-----0---0-0-0-0-|-----2-2-----2---2-2-2---|
|-2-----2-----2---2-2-2-2-|-0---0-0-0---0---0-0-0---|
|-0-------0---0---0-0-0-0-|-------------------------|
|-------------------------|-------------------------|



 Chorus:
There are only chords here, no details, so just strum these chords:

    G     Gmaj7   G6    Gmaj7   Am7           Am7/13
||--3-----2-----|-0-----2-----|-3-----------|-2-----------|
||o-3-----3-----|-3-----3-----|-1-----------|-1-----------|
||--0-----0-----|-0-----0-----|-0-----------|-0-----------|
||--0-----0-----|-0-----0-----|-2-----------|-2-----------|
||o-x-----x-----|-x-----x-----|-0-----------|-0-----------|
||--3-----3-----|-3-----3-----|-------------|-------------|

 1.
  Am7           D7            G            D7sus4 D7
|-3-----------|-2-----------|-3-----------|-3-----2------||
|-1-----------|-1-----------|-0-----------|-1-----1-----o||
|-0-----------|-2-----------|-0-----------|-2-----2------||
|-2-----------|-0-----------|-0-----------|-0-----0------||
|-0-----------|-------------|-x-----------|-------------o||
|-------------|-------------|-3-----------|--------------||

 2.
  Fadd9        D7sus4 D7
|-3-----------|-3-----2-----|
|-1-----------|-1-----1-----|
|-2-----------|-2-----2-----|
|-3-----------|-0-----0-----|
|-x-----------|-------------|
|-1-----------|-------------|

  G           Cm/G          G
|-3-----3-3-3-3-----3-3-3-|-3---3-3-3---3-----------|
|-0-----0-0-0-0h1---1-1-1-|-0---0-0-0---0-----------|
|-0-----0-0-0-0-----0-0-0-|-0---0-0-0---0-----------|
|-0-----0-0-0-0h1---1-1-1-|-0---0-0-0---0-----------|
|-x-----------------------|-------------------------|
|-3-----3-3-3-3---3-3-3-3-|-3---3-3-3---3-----------|



 Verse:
Similar to previous verse, but instead strum the first 6 chords.
The last 2 bars also vary a bit:

  Am7         Am7/13        D7
|-3---3-3-3---2---2-2-2-2-|-----2-2-----2---2-2-2---|
|-1---1-1-1---1---1-1-1-1-|-----1-1-----1---1-1-1---|
|-0---0-0-0---0---0-0-0-0-|-----2-2-----2---2-2-2---|
|-2---2-2-2---2---2-2-2-2-|-0---0-0-0---0---0-0-0---|
|-0---0-0-0---0---0-0-0-0-|-------------------------|
|-------------------------|-------------------------|



 Chorus:
Similar to previous chorus; the stummed chords in the last 2 bars are new though:

  G              E7
|-3-----------||-4-----------|
|-0-----------||-0-----------|  On the E7 it modulates up 2 semi-tones.
|-0-----------||-1-----------|  Non-relative to the capo that is from
|-0-----------||-0-----------|  Bb major up to C major, and in the album
|-x-----------||-2-----------|  version that is from B major up to Db major.
|-3-----------||-0-----------|



 Modulated Chorus:
    A     Amaj7   A6    Amaj7   Bm7           Bm7/13
||--5-----4-----|-2-----4-----|-5-----------|-4-----------|
||o-2-----2-----|-2-----2-----|-3-----------|-3-----------|
||--2-----2-----|-2-----2-----|-2-----------|-2-----------|
||--2-----2-----|-2-----2-----|-4-----------|-4-----------|
||o-0-----0-----|-0-----0-----|-2-----------|-2-----------|
||--------------|-------------|-------------|-------------|

 1.
  Bm7          E7sus4 E7      A            E7sus4 E7
|-5-----------|-5-----4-----|-------------|-0-----0------||
|-3-----------|-3-----3-----|-2-----------|-3-----3-----o||
|-2-----------|-2-----1-----|-2-----------|-2-----1------||
|-4-----------|-2-----2-----|-2-----------|-2-----2------||
|-2-----------|-x-----x-----|-0-----------|-2-----2-----o||
|-------------|-0-----0-----|-------------|-0-----0------||

 2.
  G     G(#11) E7sus4 E7
|-3-----3-----|-5-----4-----|
|-3-----2-----|-3-----3-----|
|-0-----0-----|-2-----1-----|
|-0-----0-----|-2-----2-----|
|-x-----x-----|-x-----x-----|
|-3-----3-----|-0-----0-----|

  A           Asus4         A           Asus4
|-------------0---0-0-0-0-|-------------0---0-0-0-0-|
|-2---2-2-2---3---3-3-3-3-|-0h2-2-2-2-2-3---3-3-3-3-|
|-2---2-2-2---2---2-2-2-2-|-2---2-2-2-2-2---2-2-2-2-|
|-2---2-2-2---2---2-2-2-2-|-2---2-2-2-2-2---2-2-2-2-|
|-0---0-0-0---0---0-0-0-0-|-0---0-0-0-0-0---0-0-0-0-|
|-------------------------|-------------------------|

  A           Asus4         A
|-------------0---0---0---|-0^--------:-----------5-:
|-0h2-2-2-2---3---3---3---|-0^h2------:-----------2-:
|-2---2-2-2---2---2---2---|-2^--------:-----------2-:
|-2---2-2-2---2---2---2---|-2^--------:-----------2-:
|-0---0-0-0---0---0---0---|-0^--------:----0------0-:
|-------------------------|-----------:-0-----------:



 LYRICS
**********
Something sweet
Everytime we meet
There's no doubt about it
But I wish I knew 
What I'm supposed to do with you, siren

'Cause you pretend
To be more than a friend
This is the sweetest feeling
But I don't understand 
If it's part of a plan to be lying
To me siren

Still tonight I fall for the stars in your eyes
I apologize but I want you to know
That my heart is broken
My high is low
That's how far you go

I can see what you're doing to me
But I don't know the answer
And I just couldn't take
If I made the mistake of not trying

But easy come and easy go
I don't wanna cry about it
Now that I've got it clear
That you only appear to be lying
To me siren

But tonight I fall for the stars in your eyes
I apologize but I want you to know
That my heart is broken
My high is low
That's how far you go

I apologize but I want you to know
That my heart is broken
My high is low
That's how far you go


+--------------------------------------------------------------------------+
Jon Sebastian Frederiksen - 10th /August /10
Just mail me at Maitinin@gmail.com with questions, comments and corrections!
Tap to rate this tab
 
# A B C D E F G H I J K L M N O P Q R S T U V W X Y Z