Song name
# A B C D E F G H I J K L M N O P Q R S T U V W X Y Z

Tim Christensen - The Damn Crystals Part I tab

-------------------------------------------------------------------------------
                The Damn Crystals part I - Tim Christensen & the Damn Crystals
-------------------------------------------------------------------------------

Tabbed by: Andreas Kristiansen
Email: AFKpost [at] gmail [dot] com


******************  Guitar (Lars Skærbæk)  ******************

Main riff
E |----------------------------|----------------------------|
B |----------------------------|----------------------------|
G |----------------------------|----------------------------|
D |--------11-------------9----|-----------------11---------|
A |-----9-----9-----12---------|-----12----9-----------9----|
E |--9-----------9-----9-------|--9-----9-----9-----9-------|


E |----------------------------|----------------------------|
B |----------------------------|----------------------------|
G |----------------------------|----------------------------|
D |--------11-------------9----|-----------------11---------|
A |-----9-----9-----12---------|-----12----9-----------9----|
E |--10----------10----10------|--10----10----10----10------|


E |----------------------------|----------------------------|
B |----------------------------|----------------------------|
G |----------------------------|----------------------------|
D |--------11-------7-----9----|-----7-----------7----------|
A |-----9-----9----------------|-----------11----------9----|
E |--7-----------7-----7-------|--7-----7-----7-----7-------|


E |----------------------------|----------------------------|
B |----------------------------|----------------------------|
G |----------------------------|----------------------------|
D |--------11-------------9----|-----------------11---------|
A |-----9-----9-----12---------|-----12----9-----------9----|
E |--9-----------9-----9-------|--9-----9-----9-----9-------|



Bridge to solo
E |----------------------------|----------------------------|  \    /      XXXXX
B |----------------------------|----------------------------|   \  /      X     X
G |----------------------------|----------------------------|    \/           XX
D |--7-----7-----7--6-----7----|-----7--7-------------------|    /\          X
A |--7-----7-----7--7-----7----|-----7--7-------------------|   /  \       XX
E |--5-----5-----5--5-----5----|-----5--5-------------------|  /    \     XXXXXXX



Main riff transposed (+3)
E |----------------------------|----------------------------|
B |----------------------------|----------------------------|
G |----------------------------|----------------------------|
D |--------14-------------12---|-----------------14---------|
A |-----12----12----15---------|-----15----12----------12---|
E |--12----------12----12------|--12----12----12----12------|


E |----------------------------|----------------------------|
B |----------------------------|----------------------------|
G |----------------------------|----------------------------|
D |--------14-------------12---|-----------------14---------|
A |-----12----12----15---------|-----15----12----------12---|
E |--13----------13----13------|--13----13----13----13------|


E |----------------------------|----------------------------|
B |----------------------------|----------------------------|
G |----------------------------|----------------------------|
D |--------14-------10----12---|-----10----------10---------|
A |-----12----12---------------|-----------14----------12---|
E |--10----------10----10------|--10----10----10----10------|


E |----------------------------|---------------------------|
B |----------------------------|---------------------------|
G |----------------------------|---------------------------|
D |--------14-------------12---|-----------------14--------|
A |-----12----12----15---------|-----15----12----------12--|
E |--12----------12----12------|--12----12----12----12-----|



Ending
E |----------------------------|----------------------------|  \    /      XXXXX
B |----------------------------|----------------------------|   \  /      X     X
G |--5-----5-----5--------5----|-----5--------5-----5-------|    \/           XX
D |--5-----5-----5--------5----|-----5--------5-----5-------|    /\           XX
A |--3-----3-----3--------3----|-----3--------3-----3-------|   /  \      X     X
E |----------------------------|----------------------------|  /    \      XXXXX



******************  Guitar (Tim Christensen) ******************
Dropped D


Main Riff
E |----------------------------|----------------------------|
B |----------------------------|----------------------------|
G |--------6-------------------|----------------------------|
D |--------4--------7-----6----|--------6--4--6-----7-------|
A |--------4-----4--4--4--4----|--4-----4--4--4-----4-------|
D |--4-----4-----4-----4-------|--4-----4-----4-----4-------|


E |----------------------------|----------------------------|
B |----------------------------|----------------------------|
G |--------6-------------------|----------------------------|
D |--------4--------7-----6----|--------6--4--6-----4-------|
A |--------0-----0--0--0--0----|--0-----0--0--0-----0-------|
D |--0-----0-----0-----0-------|--0-----0-----0-----0-------|


E |----------------------------|----------------------------|
B |----------------------------|----------------------------|
G |--------6--------2----------|----------------------------|
D |--------2--------2-----6----|--------6--4--6-----4-------|
A |--------2-----2--2--2--2----|--------2--2--2-----2-------|
D |--2-----2-----2-----2-------|--2-----2-----2-----2-------|


E |----------------------------|----------------|
B |----------------------------|----------------|
G |----------------------------|----------------|
D |--------7--------6-----4----|--4-------------|
A |--------4-----4--4--4--4----|--4--------7----|
D |--4-----4-----4-----4-------|--4--------4----|



Bridge to solo
E |----------------------------|----------------------------|  \    /      XXXXX
B |----------------------------|----------------------------|   \  /      X     X
G |----------------------------|----------------------------|    \/           XX
D |--7-----7-----7--------7----|-----7--7-----7-----7-------|    /\          X
A |--7-----7-----7--11----7----|-----7--7-----7-----7-------|   /  \       XX
D |--7-----7-----7--7-----7----|-----7--7-----7-----7-------|  /    \     XXXXXXX



Main riff transposed (+3)
E |----------------------------|----------------------------|
B |----------------------------|----------------------------|
G |--------9-------------------|----------------------------|
D |--------7--------10----9----|--------9--7--9-----10------|
A |--------7-----7--7--7--7----|--7-----7--7--7-----7-------|
D |--7-----7-----7-----7-------|--7-----7-----7-----7-------|


E |----------------------------|----------------------------|
B |--------5-------------------|----------------------------|
G |--------5--------5-----4----|--------4--2--4-----2-------|
D |--------3--------3-----3----|--------3--3--3-------------|
A |--------3-----3--3--3--3----|--3-----3--3--3-----3-------|
D |--3-----3-----3-----3-------|--3-----3-----3-----3-------|


E |----------------------------|----------------------------|
B |----------------------------|----------------------------|
G |--------9--------5----------|----------------------------|
D |--------5--------5-----9----|--------9--7--9-----7-------|
A |--------5-----5--5--5--5----|--------5--5--5-----5-------|
D |--5-----5-----5-----5-------|--5-----5-----5-----5-------|


E |----------------------------|---------------|
B |----------------------------|---------------|
G |----------------------------|---------------|
D |--------10-------9-----7----|--7------------|
A |--------7-----7--7--7--7----|--7--------10--|
D |--7-----7-----7-----7-------|--7--------7---|



Ending
E |----------------------------|----------------------------|  \    /      XXXXX
B |--------8-----8--10----5----|-----5-----5--3-----8-------|   \  /      X     X
G |----------------------------|----------------------------|    \/           XX
D |--------5-----5--7-----2----|-----2-----2--0-----5-------|    /\           XX
A |----------------------------|----------------------------|   /  \      X     X
D |----------------------------|----------------------------|  /    \      XXXXX


E |-------|
B |--5----|
G |--5----|
D |--5----|
A |--0----|
D |--0----|
Tap to rate this tab
# A B C D E F G H I J K L M N O P Q R S T U V W X Y Z