Song name
# A B C D E F G H I J K L M N O P Q R S T U V W X Y Z

Tim Christensen - Jump The Gun tab

-------------------------------------------------------------------------------
			     Jump the gun - Tim Christensen
-------------------------------------------------------------------------------
Tabbed by: Rockdude_DK
Email: mister-roach@ofir.dk

I looked for the song on this site, but i only came up with a inaccurate version.
Therefore i decided to tab it myself. I haven't tabbed the solo part, but maybe
somtimes in the future??
It's my first tab so please mail me if something wrong, eventhough i'm pretty sure
that it's correct...one way or another it sounds KICKASS

Tuning: Drop D

Intro: (For Intro and Post-Intro listen to the song to get the rythm right)

e|---------------------------------------------------------------------------|
B|---------------10--10--10----10--10----------------------------------------|
G|---------------11--11--11----11--11----------------------------------------|
D|--0-0-0--9-9-9--9-9-9-9-9-9-9-9-9-9----------------------------------------|
A|--0-0-0--9-9-9--9-9-9-9-9-9-9-9-9-9----------------------------------------|
D|--0-0-0--9-9-9----9---9---9-9---9------------------------------------------|

Post-Intro:

e|---------------------------------------------------------------------------|
B|---------------10--10--10----10--10--[x3]----------------------------------|
G|--2-2-2--------11--11--11----11--11--[x3]----------------------------------|
D|--0-0-0/-9-9-9--9-9-9-9-9-9-9-9-9-9--[x3]----------------------------------|
A|--0-0-0/-9-9-9--9-9-9-9-9-9-9-9-9-9--[x3]----------------------------------|
D|--0-0-0/-9-9-9----9---9---9-9---9----[x3]----------------------------------|

Verse:

e|-----------------------------------------------------------------------------------------|
B|-----------------------------------------------------------------------------------------|
G|-----------------------------------------------------------------------------------------|
D|--999999999-77777777-555-55-5-5--99999999-1212121212121212-101010--1010--10--10--[x2]----|
A|--999999999-77777777-55585585858-99999999-1212121212121212-1010101310101310131013--[x2]--|
D|--999999999-77777777-55555555555-99999999-1212121212121212-1010101010101010101010--[x2]--|

Chorus:

e|---------------------------------------------------------------------------|
B|--101010101010--9-9-9-9-9-9--[x3]---8888888888-----------------------------|
G|--111111111111-101010101010--[x3]---9999999999-----------------------------|
D|---9-9-9-9-9-9--8-8-8-8-8-8--[x3]---7777777777-----------------------------|
A|---9-9-9-9-9-9--8-8-8-8-8-8--[x3]---7777777777-----------------------------|
D|---9-9-9-9-9-9--8-8-8-8-8-8--[x3]---7777777777-----------------------------|

Bridge

e|---------------------------------------------------------------------------|
B|--10-10--10-10--10--10-10--10--9-8-7-7--11-11--11-11--11--11-11--888888888-|
G|--11-11--11-11--11--11-11--11-10-9-8-7--10-10--10-10--10--10-10--999999999-|
D|-----------------------------------------------------------------777777777-|
A|-----------------------------------------------------------------777777777-|
D|-----------------------------------------------------------------777777777-|

Play Verse/Chorus/Bridge one more time - then Solo

Then play Chorus Again + Post Chorus

Post Chorus

e|---------------------------------------------------------------------------|
B|--101010101010--9-9-9-9-9-9--[x4]---888888888810101010101010888888888------|
G|--111111111111-101010101010--[x4]---9999999999-9-9-9-9-9-9-9999999999------|
D|---9-9-9-9-9-9--8-8-8-8-8-8--[x4]---7777777777-7-7-7-7-7-7-7777777777------|
A|---9-9-9-9-9-9--8-8-8-8-8-8--[x4]---7777777777-7-7-7-7-7-7-7777777777------|
D|---9-9-9-9-9-9--8-8-8-8-8-8--[x4]---7777777777-7-7-7-7-7-7-7777777777------|

Then play Bridge again and you're done

If you have any corrections?
Please email me at mister-roach@ofir.dk


| /  slide up
| \  slide down
| h  hammer-on
| p  pull-off
| ~  vibrato
| +  harmonic
| x  Mute note
===============================================================================
Tap to rate this tab
# A B C D E F G H I J K L M N O P Q R S T U V W X Y Z