Song name
# A B C D E F G H I J K L M N O P Q R S T U V W X Y Z

Tim Christensen - Surfing The Surface tab

    _______________________
   / Tim Christensen      /  
  / Surfing the Surface  /  
 / Honeyburst           /  
/______________________/  

Igennem hele nummeret spiller akkustisk guitar og en elektrisk guitar.
I store træk spiller de begge akkorderne, men den elektriske tager sig
også af de fills der er. I omkvædet spiller den akkustiske akkorderne,
mens den elektriske spiller det, der står i takterne lige nedenunder.


*Intro:
********
(spillet både af den akkustiske og elektriske)

  G                         Dm9/a#
|-------------------------|---------------0---------|
|-------1-----1-----------|-------1-----------1-----|
|-2h4-------4-------4-----|-2---------2-----------2-|
|-0---0-----------------0-|-0-----------0-----------|
|-------------------------|-1---1-------1-----------|
|-3-------3-------3---3---|-------------------------|

  G                         Dm9/a#
|-------------------------|---------------0---------|
|-------1-----1-----------|-------1-----------1-----|
|-4---------4-------4-----|-2---------2-----------2-|
|-0---0-------------------|-0-----------0-----------|
|-------------------------|-1---1-------1-----------|
|-3-------3-------3---3---|-------------------------|

  G                         G13
|-------------------------|-------0-----0-----------|
|-------1-----1-----------|-3---------3-------3-----|
|-4---------4-------4-----|-0---------------------0-|
|-0---0-------------------|-3---3-----------3-------|
|-------------------------|-------------------------|
|-3-------3-------3---3---|-3-------3---------------|

  G                         G13
|-------------------------|-----0-3---5p3-----------|
|-------1-----1-----------|-3-----------------------|
|-4---------4-------4-----|-0-----------------------|
|-0-----------------------|-3-----------------------|
|-------------------------|-------------------------|
|-3-------3-------3---3---|-3-----------------------|



*1. Vers:                                                         _E_A_D_G_B_e_
**********                                                       | | | | | | | |
         G       Cm/g                                          G | 3 x 0 0 0 x |
  You're on your own                                             |             |
      G          G7                                         Cm/g | 3 x 1 0 1 x |
  But you're not alone                                           |             |
         Cm/g    G  A7/g      A7/g  [fill-1]                  G7 | 3 x 3 0 3 x |
  'Cause I wanna be where you are                                |             |
                                                            A7/g | 3 x 2 0 2 x |
 [fill-1]:                                                       |_|_|_|_|_|_|_|
  A7/g            Cm/g
|-3-5--p3--p0-3-----------|
|-2-2---------2---1-1---1-|
|-0-0---------0---0-0---0-|
|-----------------1-1---1-|
|-------------------------|
|-----------------3-3---3-|


    G        Cm/g
  I cry your name
    G               G7
  A million times a day
         Cm/g    G        A7/g           A7/g  [fill-2]
  'Cause I wanne be where ever you are tonight

           Cm/g           [fill-3]
  Don't go easy on me now
           G              [fill-4]
  Don't go easy on me now

 [fill-2]:                   [fill-3]:                 [fill-4]:
  A7/g                        Cm/g                      G
|-3-5--p3--p0-3---3---3---| |-3-5---3---0-3---------| |-----------0----------|
|-2-2---------2---2---2---| |-1-1---------1---------| |-------3-----3--------|
|-0-0---------0---0---0---| |-0-0---------0---------| |-2h4------------------|
|-----------------2---2---| |-----------------------| |-0--------------------|
|-------------------------| |-----------------------| |----------------------|
|-----------------3---3---| |-----------------------| |----------------------|



*Mellemspil:
*************
magen til Intro'en



*2. Vers:
**********
magen til 1. Vers

    G      Cm/g
  I try to see
      G       G7
  The simplicity
  Cm/g               G          A7/g    A7/g  [fill-1]
  That's made out of wooden-log comfort
      G     Cm/g
  But every time
      G              G7
  You run through my mind
    Cm/g     G         A7/g     A7/g  [fill-2]
  I cannot believe the sorrow I feel

           Cm/g           [fill-3]
  Don't go easy on me now
           G              [fill-4]
  Don't go easy on me now




*Omkvæd:                                                          _E_A_D_G_B_e_
*********                                                        | | | | | | | |
  G                       Fadd9                                G | 3 x 0 0 0 3 |
  Surfing the surface without no light on                        |             |
    Em                             Eb6                     Fadd9 | x x 3 2 1 3 |
  I don't wanna be there when they put the lights on             |             |
    G7                        C11                             Em | x x 2 0 0 3 |
  I don't wanna cry your name                                    |             |
    G7                     C11                               Eb6 | x x 1 3 1 3 |
  I don't wanna be ashamed                                       |             |
  G                       F          Eb/bb                    G7 | 3 x 0 0 3 1 |
  Trust and belive me and let it all remain the same             |             |
                                                             C11 | x 3 5 0 6 0 |
                                                                 |             |
                                                               F | x 8 7 5 6 5 |
                                                                 |             |
                                                           Eb/bb | 6 x 5 3 4 3 |
                                                                 |_|_|_|_|_|_|_|
 "takterne lige nedenunder":
  G                         Fadd9
|-7h8---7-----7h8---7-----|-5-----8-----7---7-7---7-|
|-8-----8-----8-----8-----|-6-----6-----6---6-6---6-|
|-7-----7-----7-----7-----|-5-----5-----5---5-5---5-|
|-------------------------|-------------------------|
|-------------------------|-------------------------|
|-------------------------|-------------------------|

  Em                        Eb6
|-7-----7-----7-----7-7---|-8-----8-----8-----8-----|
|-8-----8-----8-----8-8---|-8-----8-----8-----8-----|
|-9-----9-----9-----9-9---|-8-----8-----8-----8-----|
|-------------------------|-------------------------|
|-------------------------|-------------------------|
|-------------------------|-------------------------|

  G7                        C11
|-7-----7-7---7-----7-----|-10--10-10--10-10-------------|
|-6-----6-6---6-----6-----|--8---8--8---8----11-10--8----|
|-7-----7-7---7-----7-----|-10--10-10--10-10-------10----|
|-------------------------|------------------------------|
|-------------------------|------------------------------|
|-------------------------|------------------------------|

  G7                        C11
|-7-----7-----7-----7-----|-10-----10-----10-------------|
|-6-----6-----6-----6-----|--8------8--------11-10--8----|
|-7-----7-----7-----7-----|-10-----10-----10-------10----|
|-------------------------|------------------------------|
|-------------------------|------------------------------|
|-------------------------|------------------------------|

  G                         Eb/bb                     Eb/bb
|-8-----8-----8-----7---7-|-6-----------5-----------|-6-5p3-----5-3-----------|
|-8-----8-----8-----8---8-|-4-----------4-----------|-4-----6-4---------------|
|-7-----7-----7-----7---7-|-3-----------3-----------|-3-----------------------|
|-------------------------|-------------------------|-------------------------|
|-------------------------|-------------------------|-------------------------|
|-------------------------|-------------------------|-------------------------|



*3. Vers:
**********
magen til de andre vers

  You're on your own
  But you're not alone
  'Cause I wanna be where you are

  To my surprise
  I've come to realize
  That I'll never be wherever you are tonight

  If you go easy on me now
  Don't go easy on me now



*Omkvæd:
*********
magen til før



*Omkvæd:
*********
magen til før, men gentag de sidste 3 takter



*Outro:
********
(spillet både af den akkustiske og elektriske)

    G                         Dm9/a#                   4x
||--------------------------|---------------0----------||
||o-------1-----1-----------|-------1-----------1-----o||
||--4---------4-------4-----|-2---------2-----------2--||
||--0---0-------------------|-0-----------0------------||
||o-------------------------|-1---1-------1-----------o||
||--3-------3-------3---3---|--------------------------||

...og slut på G


- 16th /January /08
Just mail me at Maitinin@gmail.com with questions, comments and corrections!
Tap to rate this tab
# A B C D E F G H I J K L M N O P Q R S T U V W X Y Z