Song name
# A B C D E F G H I J K L M N O P Q R S T U V W X Y Z

Tim Gilbertson - Wasting Air tab

Song: Wasting Air
Artist: Tim Gilbertson
Tabbed by: MgoBlueNo1
Website: http://www.myspace.com/killbertson

Standard Tuning

This is a great song from Tim Gilbertson. I tabbed out the entire song, because it is 
simple and easy to play. It should be 100% correct, but if you have any corrections, email 
at ledzeppelinro@yahoo.com. Thanks a lot and keep on rockin'!!!

Note: The parenthesis separate the different sections of the bass and guitar parts. I 
both of them and they are next to each other in unison as they are played in the song.

E|-----------------------------------------------------------------|
B|-----------------------------------------------------------------|
G|-----------------------------------------------------------------|
D|--555-5-5-5-5-5-5-5-5-5-5-5-5-5-5-5-5-5-5-5-5-5-5-5-5-5-5-5-5-5--|
A|--555-5-5-5-5-5-5-5-5-5-5-5-5-5-5-5-5-5-5-5-5-5-5-5-5-5-5-5-5-5--|
E|--333-3-3-3-3-3-3-3-3-3-3-3-3-3-3-3-3-3-3-3-3-3-3-3-3-3-3-3-3-3--|

G|-----------------------------------------------------------------|
D|-----------------------------------------------------------------|
A|-----------------------------------------------------------------|
E|--333-3-3-3-3-3-3-3-3-3-3-3-3-3-3-3-3-3-3-3-3-3-5-5-5-5-7-7-7-7--|


((((((((((((((((((((((((((())))))))))))))))))))))))))))))))))))))))))


E|-----------------------------------------------------------------|
B|-----------------------------------------------------------------|
G|--5-5-5-5-5-5-5-5-5-5-5-5-5-5-5-5--------------------------------|
D|--5-5-5-5-5-5-5-5-5-5-5-5-5-5-5-5-5-5-5-5-5-5-5-5-5-5-5-5-5-5-5--|
A|--3-3-3-3-3-3-3-3-3-3-3-3-3-3-3-3-5-5-5-5-5-5-5-5-5-5-5-5-5-5-5--|
E|----------------------------------3-3-3-3-3-3-3-3-3-3-3-3-3-3-3--|

G|-----------------------------------------------------------------|
D|-----------------------------------------------------------------|
A|--3-3-3-3-3-3-3-3-3-3-3-3-3-3-3-3--------------------------------|
E|----------------------------------3-3-3-3-3-3-3-3-3-3-3-3-3-3-3--|


((((((((((((((((((((((((((())))))))))))))))))))))))))))))))))))))))))


E|-------------------------------------------------------------------|
B|-------------------------------------------------------------------|
G|-------------------------------------------------------------------|
D|--5----------------------------------------------------------------|
A|--5----------------------------------------------------------------|
E|--3----------------------------------------------------------------|

G|-------------------------------------------------------------------|
D|-------------------------------------------------------------------|
A|-------------------------------------------------------------------|
E|--3-3-3-3-3-3-3-3-3-3-3-3-3-3-3-3-3-3-3-3-3-3-3-3-5-5-5-5-7-7-7-7--|


((((((((((((((((((((((((((())))))))))))))))))))))))))))))))))))))))))


E|------------------------------------------------------------------|
B|------------------------------------------------------------------|
G|-5----------------------------------------------------------------|
D|-5-------------------------------5--------------------------------|
A|-3-------------------------------5--------------------------------|
E|---------------------------------3--------------------------------|

G|------------------------------------------------------------------|
D|------------------------------------------------------------------|
A|-3-3-3-3-3-3-3-3-3-3-3-3-3-3-3-3----------------------------------|
E|---------------------------------3-3-3-3-3-3-3-3-3-3-3-3-3-3-3-3--|


((((((((((((((((((((((((((())))))))))))))))))))))))))))))))))))))))))


E|-------------------------------------------------------------------|
B|-------------------------------------------------------------------|
G|-------------------------------------------------------------------|
D|--5----------------------------------------------------------------|
A|--5----------------------------------------------------------------|
E|--3----------------------------------------------------------------|

G|-------------------------------------------------------------------|
D|-------------------------------------------------------------------|
A|-------------------------------------------------------------------|
E|--3-3-3-3-3-3-3-3-3-3-3-3-3-3-3-3-3-3-3-3-3-3-3-3-5-5-5-5-7-7-7-7--|


((((((((((((((((((((((((((())))))))))))))))))))))))))))))))))))))))))


E|------------------------------------------------------------------|
B|------------------------------------------------------------------|
G|-5----------------------------------------------------------------|
D|-5-------------------------------5--------------------------------|
A|-3-------------------------------5--------------------------------|
E|---------------------------------3--------------------------------|

G|------------------------------------------------------------------|
D|------------------------------------------------------------------|
A|-3-3-3-3-3-3-3-3-3-3-3-3-3-3-3-3----------------------------------|
E|---------------------------------3-3-3-3-3-3-3-3-3-3-3-3-3-3-3-3--|


((((((((((((((((((((((((((())))))))))))))))))))))))))))))))))))))))))


E|--------------------------------------------------------------------------|
B|--------------------------------------------------------------------------|
G|-5-------------------------------5-------------7--------------5-----------|
D|-5-------------------------------5-------------7--------------5-----------|
A|-3-------------------------------3-------------5--------------3-----------|
E|--------------------------------------------------------------------------|

G|--------------------------------------------------------------------------|
D|--------------------------------------------------------------------------|
A|-3-3-3-3-3-3-3-3-3-3-3-3-3-3-3-3------------------------------3-3-3-3-3-3-|
E|---------------------------------3-3-3-3-3-3-3-5-5-5-5-5-5-5-5------------|


((((((((((((((((((((((((((())))))))))))))))))))))))))))))))))))))))))


:40
E|-------------------------------------------------------------------|
B|-------------------------------------------------------------------|
G|-------------------------------------------------------------------|
D|--5-5-5-5-5-5-5-5-5-5-5-5-5-5-5-5-5-5-5-5-5-5-5-5-5-5-5-5-5-5-5-5--|
A|--5-5-5-5-5-5-5-5-5-5-5-5-5-5-5-5-5-5-5-5-5-5-5-5-5-5-5-5-5-5-5-5--|
E|--3-3-3-3-3-3-3-3-3-3-3-3-3-3-3-3-3-3-3-3-3-3-3-3-3-3-3-3-3-3-3-3--|
                                                                       x2
G|-------------------------------------------------------------------|
D|-------------------------------------------------------------------|
A|-------------------------------------------------------------------|
E|--3-3-3-3-3-3-3-3-3-3-3-3-3-3-3-3-3-3-3-3-3-3-3-3-3-3-3-3-3-3-3-3--|


((((((((((((((((((((((((((())))))))))))))))))))))))))))))))))))))))))


E|-------------------------------------------------------------------|
B|-------------------------------------------------------------------|
G|-------------------------------------------------------------------|
D|--5-5-5-5-5-5-5-5-5-5-5-5-5-5-5-5-5-5-5-5-5-5-5-5-5-5-5-5-5-5-5-5--|
A|--5-5-5-5-5-5-5-5-5-5-5-5-5-5-5-5-5-5-5-5-5-5-5-5-5-5-5-5-5-5-5-5--|
E|--3-3-3-3-3-3-3-3-3-3-3-3-3-3-3-3-3-3-3-3-3-3-3-3-3-3-3-3-3-3-3-3--|

G|-------------------------------------------------------------------|
D|-------------------------------------------------------------------|
A|-------------------------------------------------------------------|
E|--3-3-3-3-3-3-3-3-3-3-3-3-3-3-3-3-3-3-3-3-3-3-3-3-5-5-5-5-7-7-7-7--|


((((((((((((((((((((((((((())))))))))))))))))))))))))))))))))))))))))


E|-----------------------------------------------------------------|
B|-----------------------------------------------------------------|
G|--5-5-5-5-5-5-5-5-5-5-5-5-5-5-5-5--------------------------------|
D|--5-5-5-5-5-5-5-5-5-5-5-5-5-5-5-5-5-5-5-5-5-5-5-5-5-5-5-5-5-5-5--|
A|--3-3-3-3-3-3-3-3-3-3-3-3-3-3-3-3-5-5-5-5-5-5-5-5-5-5-5-5-5-5-5--|
E|----------------------------------3-3-3-3-3-3-3-3-3-3-3-3-3-3-3--|

G|-----------------------------------------------------------------|
D|-----------------------------------------------------------------|
A|--3-3-3-3-3-3-3-3-3-3-3-3-3-3-3-3--------------------------------|
E|----------------------------------3-3-3-3-3-3-3-3-3-3-3-3-3-3-3--|


((((((((((((((((((((((((((())))))))))))))))))))))))))))))))))))))))))


E|-------------------------------------------------------------------|
B|-------------------------------------------------------------------|
G|-------------------------------------------------------------------|
D|--5-5-5-5-5-5-5-5-5-5-5-5-5-5-5-5-5-5-5-5-5-5-5-5-5-5-5-5-5-5-5-5--|
A|--5-5-5-5-5-5-5-5-5-5-5-5-5-5-5-5-5-5-5-5-5-5-5-5-5-5-5-5-5-5-5-5--|
E|--3-3-3-3-3-3-3-3-3-3-3-3-3-3-3-3-3-3-3-3-3-3-3-3-3-3-3-3-3-3-3-3--|

G|-------------------------------------------------------------------|
D|-------------------------------------------------------------------|
A|-------------------------------------------------------------------|
E|--3-3-3-3-3-3-3-3-3-3-3-3-3-3-3-3-3-3-3-3-3-3-3-3-5-5-5-5-7-7-7-7--|


((((((((((((((((((((((((((())))))))))))))))))))))))))))))))))))))))))


E|-----------------------------------------------------------------|
B|-----------------------------------------------------------------|
G|--5-5-5-5-5-5-5-5-5-5-5-5-5-5-5-5--------------------------------|
D|--5-5-5-5-5-5-5-5-5-5-5-5-5-5-5-5-5-5-5-5-5-5-5-5-5-5-5-5-5-5-5--|
A|--3-3-3-3-3-3-3-3-3-3-3-3-3-3-3-3-5-5-5-5-5-5-5-5-5-5-5-5-5-5-5--|
E|----------------------------------3-3-3-3-3-3-3-3-3-3-3-3-3-3-3--|

G|-----------------------------------------------------------------|
D|-----------------------------------------------------------------|
A|--3-3-3-3-3-3-3-3-3-3-3-3-3-3-3-3--------------------------------|
E|----------------------------------3-3-3-3-3-3-3-3-3-3-3-3-3-3-3--|


((((((((((((((((((((((((((())))))))))))))))))))))))))))))))))))))))))


E|-------------------------------------------------------------------|
B|-------------------------------------------------------------------|
G|--5-5-5-5-5-5-5-5-5-5-5-5-5-5-5-5-5-5-5-5-5-5-5-5-7-7-7-7-7-7-7-7--|
D|--5-5-5-5-5-5-5-5-5-5-5-5-5-5-5-5-5-5-5-5-5-5-5-5-7-7-7-7-7-7-7-7--|
A|--3-3-3-3-3-3-3-3-3-3-3-3-3-3-3-3-3-3-3-3-3-3-3-3-5-5-5-5-5-5-5-5--|
E|-------------------------------------------------------------------|

G|-------------------------------------------------------------------|
D|-------------------------------------------------------------------|
A|--3-3-3-3-3-3-3-3-3-3-3-3-3-3-3-3----------------------------------|
E|----------------------------------3-3-3-3-3-3-3-3-5-5-5-5-5-5-5-5--|


((((((((((((((((((((((((((())))))))))))))))))))))))))))))))))))))))))


E|-----------------------------------|
B|-----------------------------------|
G|--5-5-5-5-5-5-5-5-5-5-5-5-5-5-5-5--|
D|--5-5-5-5-5-5-5-5-5-5-5-5-5-5-5-5--|
A|--3-3-3-3-3-3-3-3-3-3-3-3-3-3-3-3--|
E|-----------------------------------|

G|-----------------------------------|
D|-----------------------------------|
A|--3-3-3-3-3-3-3-3-3-3-3-3-3-3-3-3--|
E|-----------------------------------|


((((((((((((((((((((((((((())))))))))))))))))))))))))))))))))))))))))


1:20
E|-----------------------------------------------|
B|-----------------------------------------------|
G|------------7-7-7-7-7-7-5-5-5-5-5-5-5-5-5-5-5--|
D|--5-5-5-5-5-7-7-7-7-7-7-5-5-5-5-5-5-5-5-5-5-5--|
A|--5-5-5-5-5-5-5-5-5-5-5-3-3-3-3-3-3-3-3-3-3-3--|
E|--3-3-3-3-3------------------------------------|
                                                     x4
G|-----------------------------------------------|
D|-----------------------------------------------|
A|------------5-5-5-5-5-5-3-3-3-3-3-3-3-3-3-3-3--|
E|--3-3-3-3-3------------------------------------|


((((((((((((((((((((((((((())))))))))))))))))))))))))))))))))))))))))


E|-------------------------------------------------------------------|
B|-------------------------------------------------------------------|
G|-------------------------------------------------------------------|
D|--5-5-5-5-5-5-5-5-5-5-5-5-5-5-5-5-5-5-5-5-5-5-5-5-5-5-5-5-5-5-5-5--|
A|--5-5-5-5-5-5-5-5-5-5-5-5-5-5-5-5-5-5-5-5-5-5-5-5-5-5-5-5-5-5-5-5--|
E|--3-3-3-3-3-3-3-3-3-3-3-3-3-3-3-3-3-3-3-3-3-3-3-3-3-3-3-3-3-3-3-3--|
                                                                       x2
G|-------------------------------------------------------------------|
D|-------------------------------------------------------------------|
A|-------------------------------------------------------------------|
E|-------------------------------------------------------------------|


((((((((((((((((((((((((((())))))))))))))))))))))))))))))))))))))))))


E|-------------------------------------------------------------------|
B|-------------------------------------------------------------------|
G|-------------------------------------------------------------------|
D|--5-5-5-5-5-5-5-5-5-5-5-5-5-5-5-5-5-5-5-5-5-5-5-5-5-5-5-5-5-5-5-5--|
A|--5-5-5-5-5-5-5-5-5-5-5-5-5-5-5-5-5-5-5-5-5-5-5-5-5-5-5-5-5-5-5-5--|
E|--3-3-3-3-3-3-3-3-3-3-3-3-3-3-3-3-3-3-3-3-3-3-3-3-3-3-3-3-3-3-3-3--|

G|-------------------------------------------------------------------|
D|-------------------------------------------------------------------|
A|-------------------------------------------------------------------|
E|-/3-3-3-3-3-3-3-3-3-3-3-3-3-3-3-3-3-3-3-3-3-3-3-3-5-5-5-5-7-7-7-7--|


((((((((((((((((((((((((((())))))))))))))))))))))))))))))))))))))))))


E|-----------------------------------------------------------------|
B|-----------------------------------------------------------------|
G|--5-5-5-5-5-5-5-5-5-5-5-5-5-5-5-5--------------------------------|
D|--5-5-5-5-5-5-5-5-5-5-5-5-5-5-5-5-5-5-5-5-5-5-5-5-5-5-5-5-5-5-5--|
A|--3-3-3-3-3-3-3-3-3-3-3-3-3-3-3-3-5-5-5-5-5-5-5-5-5-5-5-5-5-5-5--|
E|----------------------------------3-3-3-3-3-3-3-3-3-3-3-3-3-3-3--|

G|-----------------------------------------------------------------|
D|-----------------------------------------------------------------|
A|--3-3-3-3-3-3-3-3-3-3-3-3-3-3-3-3--------------------------------|
E|----------------------------------3-3-3-3-3-3-3-3-3-3-3-3-3-3-3--|


((((((((((((((((((((((((((())))))))))))))))))))))))))))))))))))))))))


E|-------------------------------------------------------------------|
B|-------------------------------------------------------------------|
G|-------------------------------------------------------------------|
D|--5-5-5-5-5-5-5-5-5-5-5-5-5-5-5-5-5-5-5-5-5-5-5-5-5-5-5-5-5-5-5-5--|
A|--5-5-5-5-5-5-5-5-5-5-5-5-5-5-5-5-5-5-5-5-5-5-5-5-5-5-5-5-5-5-5-5--|
E|--3-3-3-3-3-3-3-3-3-3-3-3-3-3-3-3-3-3-3-3-3-3-3-3-3-3-3-3-3-3-3-3--|

G|-------------------------------------------------------------------|
D|-------------------------------------------------------------------|
A|-------------------------------------------------------------------|
E|--3-3-3-3-3-3-3-3-3-3-3-3-3-3-3-3-3-3-3-3-3-3-3-3-5-5-5-5-7-7-7-7--|


((((((((((((((((((((((((((())))))))))))))))))))))))))))))))))))))))))


E|-----------------------------------------------------------------|
B|-----------------------------------------------------------------|
G|--5-5-5-5-5-5-5-5-5-5-5-5-5-5-5-5--------------------------------|
D|--5-5-5-5-5-5-5-5-5-5-5-5-5-5-5-5-5-5-5-5-5-5-5-5-5-5-5-5-5-5-5--|
A|--3-3-3-3-3-3-3-3-3-3-3-3-3-3-3-3-5-5-5-5-5-5-5-5-5-5-5-5-5-5-5--|
E|----------------------------------3-3-3-3-3-3-3-3-3-3-3-3-3-3-3--|

G|-----------------------------------------------------------------|
D|-----------------------------------------------------------------|
A|--3-3-3-3-3-3-3-3-3-3-3-3-3-3-3-3--------------------------------|
E|----------------------------------3-3-3-3-3-3-3-3-3-3-3-3-3-3-3--|


((((((((((((((((((((((((((())))))))))))))))))))))))))))))))))))))))))


E|-------------------------------------------------------------------|
B|-------------------------------------------------------------------|
G|--5-5-5-5-5-5-5-5-5-5-5-5-5-5-5-5-5-5-5-5-5-5-5-5-7-7-7-7-7-7-7-7--|
D|--5-5-5-5-5-5-5-5-5-5-5-5-5-5-5-5-5-5-5-5-5-5-5-5-7-7-7-7-7-7-7-7--|
A|--3-3-3-3-3-3-3-3-3-3-3-3-3-3-3-3-3-3-3-3-3-3-3-3-5-5-5-5-5-5-5-5--|
E|-------------------------------------------------------------------|

G|-------------------------------------------------------------------|
D|-------------------------------------------------------------------|
A|--3-3-3-3-3-3-3-3-3-3-3-3-3-3-3-3----------------------------------|
E|----------------------------------3-3-3-3-3-3-3-3-5-5-5-5-5-5-5-5--|


((((((((((((((((((((((((((())))))))))))))))))))))))))))))))))))))))))


E|-----------------------------------|
B|-----------------------------------|
G|--5-5-5-5-5-5-5-5-5-5-5-5-5-5-5-5--|
D|--5-5-5-5-5-5-5-5-5-5-5-5-5-5-5-5--|
A|--3-3-3-3-3-3-3-3-3-3-3-3-3-3-3-3--|
E|-----------------------------------|

G|-----------------------------------|
D|-----------------------------------|
A|--3-3-3-3-3-3-3-3-3-3-3-3-3-3-3-3--|
E|-----------------------------------|


((((((((((((((((((((((((((())))))))))))))))))))))))))))))))))))))))))


E|-----------------------------------------------|
B|-----------------------------------------------|
G|------------7-7-7-7-7-7-5-5-5-5-5-5-5-5-5-5-5--|
D|--5-5-5-5-5-7-7-7-7-7-7-5-5-5-5-5-5-5-5-5-5-5--|
A|--5-5-5-5-5-5-5-5-5-5-5-3-3-3-3-3-3-3-3-3-3-3--|
E|--3-3-3-3-3------------------------------------|
                                                     x4
G|-----------------------------------------------|
D|-----------------------------------------------|
A|------------5-5-5-5-5-5-3-3-3-3-3-3-3-3-3-3-3--|
E|--3-3-3-3-3------------------------------------|


((((((((((((((((((((((((((())))))))))))))))))))))))))))))))))))))))))


2:45
E|-------------------------------------------------------------------|
B|-------------------------------------------------------------------|
G|--5-5-5-5-5-5-5-5-7-7-7-7-7-7-7-7-5-5-5-5-5-5-5-5-5-5-5-5-5-5-5-5--|
D|--5-5-5-5-5-5-5-5-7-7-7-7-7-7-7-7-5-5-5-5-5-5-5-5-5-5-5-5-5-5-5-5--|
A|--3-3-3-3-3-3-3-3-5-5-5-5-5-5-5-5-3-3-3-3-3-3-3-3-3-3-3-3-3-3-3-3--|
E|-------------------------------------------------------------------|

G|-------------------------------------------------------------------|
D|-------------------------------------------------------------------|
A|----------------------------------3-3-3-3-3-3-3-3-3-3-3-3-3-3-3-3--|
E|--3-3-3-3-3-3-3-3-5-5-5-5-5-5-5-5----------------------------------|


((((((((((((((((((((((((((())))))))))))))))))))))))))))))))))))))))))


E|------------------------------------------------------------------------|
B|------------------------------------------------------------------------|
G|------------------------------------------------------------------------|
D|------------------------------------------------------------------------|
A|--5-5-5-5-5--5-5-5-5-5-5/7-7-7-7--5-5-5-5-5-5-5-5--5-5-5-5-5-5/7-7-7-7--|
E|--3-3-3-3-3--2-2-2-2-2-2/5-5-5-5--3-3-3-3-3-3-3-3--2-2-2-2-2-2/5-5-5-5--|

G|------------------------------------------------------------------------|
D|------------------------------------------------------------------------|
A|------------------------------------------------------------------------|
E|------------------------------------------------------------------------|


((((((((((((((((((((((((((())))))))))))))))))))))))))))))))))))))))))


E|--10-7-10-7-----------10-7-10-7------------------|
B|------------10-8-10-8-----------10-8-10p8--------|
G|------------------------------------------9------|
D|-------------------------------------------------|
A|-------------------------------------------------|
E|-------------------------------------------------|

E|-------------------------------------------------|
B|-------------------------------------------------|
G|-------------------------------------------------|    x6
D|--5-5-5-5-5-------5-5-5-5-5-5-7-7-7-7-----5-5-5--|
A|--5-5-5-5-5-------5-5-5-5-5-5/7-7-7-7-----5-5-5--|
E|--3-3-3-3-3-------2-2-2-2-2-2/5-5-5-5-----3-3-3--|

G|-------------------------------------------------|
D|-------------------------------------------------|
A|-------------------------------------------------|
E|--3-3-3-3-3-------2-2-2-2-2-2/5-5-5-5------------|
Tap to rate this tab
# A B C D E F G H I J K L M N O P Q R S T U V W X Y Z