Guitaretab - guitar tabs
Song name
# A B C D E F G H I J K L M N O P Q R S T U V W X Y Z

Tim Hughes - Dance tab

Artist: Tim Hughes
Album:Soul Survivour
Song:Dance
Key:D

INTRO/VERSE
e|----------------------|
B|----------------------|
G|----------------------|
D|--5---5---9---7-------|X6
A|--5---5---9---7-------|
E|--2---3---7---5-------|
   D/F# G   Bm   A

THEN PLAY (CHORUS)
e|----------------------|
B|----------------------|
G|---7------------------|FOUR BARS
D|---7------------------|
A|---5------------------|
E|----------------------|
     D
[ Tab from: http://www.guitaretab.com/t/tim-hughes/180127.html ]
2ND VERSE 1ST GUITAR
e|-------7-------------|
B|-----------8---------|
G|---------------7-----|
D|---------------------|
A|---------------------|
E|---------------------|

3RD VERSE
(JOY)
e|--10-10-10-10-10-10---|
B|--10-10-10-10-10-10---|
G|--11-11-11-11-11-11---|
D|----------------------|
A|----------------------|
E|----------------------|
     D 
(JUMP)
e|----------------------|
B|---15b~~~-------------|
G|----------------------|
D|----------------------|
A|----------------------|
E|----------------------|


I hope this helps and have fun playing it.

Related for Dance tab
Advertisement will be closed in 10 seconds