Song name
# A B C D E F G H I J K L M N O P Q R S T U V W X Y Z

Tim Hughes - Happy Day tab

-----------------------------------------------------------------
HAPPY DAY-Tim Hughes
-----------------------------------------------------------------
Tabbed by:Dean C.

Tuning: Standard

This is my first tab. It is hard to tab out the part between the bridge and the chorus, 
I did what I could. Listen to the song to get a feel for the tempo. Any feedback would 
appreciated. :)

Intro
e|------------------------------------------------------|
B|131313131313131313131313131313131313131313131313131313|
G|121212121212121212101010101010101010-9-9-9-9-9-9-9-9-9|
D|------------------------------------------------------|
A|------------------------------------------------------|
E|------------------------------------------------------|

e|1313131313131313--|
B|1010101010101010--|
G|------------------| x2
D|------------------|
A|----------------xx|
E|----------------xx|

Verse
e|------------------------------------------------------|
B|---8---8-------8---8--------8----8---------8----8-----|
G|--9---9---9---9---9---9---10---10---10---10---10---10-|  x4
D|10--10--10--10--10--10--10---10---10---10---10---10---|
A|------------------------------------------------------|
E|------------------------------------------------------|

Pre-Chorus
e|---8---8-------8---8----|
B|--8---8---8---8---8---8-|
G|10--10--10--10--10--10--|
D|------------------------|
A|------------------------|
E|------------------------|

Chorus
e|--------------------------------|
B|--------------------------------|
G|--------555555559999999977777777|  x2
D|55555555333333337777777755555555|
A|33333333------------------------|
E|--------------------------------|

Intro

Verse

Pre-Chorus

Chorus

Intro

Bridge
e|---------------------------------------------------------------|
B|---------------------------------------------------------------|
G|--------------5------------------------------------------------|
D|------9-------3------5-5-5-5----5-----9---17---17----17---17---|
A|7-----7--------------3-3-3-3----3-----7---15---15----15---15---|
E|5--------------------------------------------------------------|

Chorus

Intro

Outro
e|---------------------------------------------------------------|
B|---------------------------------------------------------------|
G|5---7----------------------------------------------------------|
D|3---5----5-----------------------------------------------------|
A|---------3-----------------------------------------------------|
E|---------------------------------------------------------------|


| /  slide up
| \  slide down
| h  hammer-on
| p  pull-off
| ~  vibrato
| +  harmonic
| x  Mute note
Tap to rate this tab
 
# A B C D E F G H I J K L M N O P Q R S T U V W X Y Z