Song name
# A B C D E F G H I J K L M N O P Q R S T U V W X Y Z

Tim Hughes - Beautiful One tab

Beautiful One 	by Tim Hughes

Key of D

Intro Chord - rhythm Guitar
e------------------------|-------|
B------------------------|-------|
G-12---6-----7---9-------|--12~--|
D-12---6-----7---9--(x3)-|--12~--|
A-10---4-----5---7-------|--10~--|
E------------------------|-------|
 (8x) (2x) (2x) (1x)     (let ring)

intro riff - Lead Guitar
e--/15------15-----15-------------------------------------------------------------------------|
B-----15------15-----15--15-14---15-14--15---15-15-15-15--------------------------------------|
G-------14------14------------14------14--14------------14-14-14-14-12-12-12-12-11-11-11-11---|
D---------------------------------------------------------------------------------------------|
A---------------------------------------------------------------------------------------------|
E---------------------------------------------------------------------------------------------|

Verse 1					Chorus	(notes 8x each)
e-----------------------------12--10----------------------------------------------------------|
B------------------------10------------------------8--10--------------------------------------|
G-7---7------7--9-7-9-------11--11--------7----9---7--9---7-9---------------------------------|
D-7-----7----7----------------------------7----9---9--11--7-9---------------------------------|
A-5----------5----------------------------5----7---7--9---5-7---------------------------------|
E---------------------------------------------------------------------------------------------|
    so won. love         me		  One love

Verse 2					       		              Chorus x2 (notes 8x each)
e-10--9-------------------12--10-----------------------------12--10---------------------------|
B-10---10--10--------10---------------------------------10-------------------8--10------------|
G-9--------9---9---9----11--11-----7--7--777---9--9---9----11--11-----7--9---7--9---7-9-------|
D----------7----7------------------7-7--7---7--7-7--7-----------------7--9---9--11--7-9-------|
A----------------------------------5----------------------------------5--7---7--9---5-7-------|
E---------------------------------------------------------------------------------------------|
  pow.so glor sky  see		   Beauty      How      you

Bridge					       		              Chorus x2 (notes 8x each)
e-10~-9-------|-10-|-10---9--------0-----|-10---12---14---15---17------------------------------|
B-------10----|----|-----------10---10---|------------------------------------8--10------------|
G-------------|----|---------------------|-----------------------------7--9---7--9---7-9-------|
D---------(x3)|----|-----------------(x2)|-----------------------------7--9---9--11--7-9-------|
A-------------|----|---------------------|-----------------------------5--7---7--9---5-7-------|
E-------------|----|---------------------|-----------------------------------------------------|
 open  	       (8x) (8x) (2x) (2x)        (8x) (8x) (4x) (4x) (4x)
                    open                 nothing

outro riff - Lead Guitar
e--/15------15-----15----------------------------|------|
B-----15------15-----15--15-14---15-14--15-------|-15~--|
G-------14------14------------14------14--14-----|-14~--|
D--------------------------------------------(x3)|------|
A------------------------------------------------|------|
E------------------------------------------------|------|
Tap to rate this tab
# A B C D E F G H I J K L M N O P Q R S T U V W X Y Z