Song name
# A B C D E F G H I J K L M N O P Q R S T U V W X Y Z

Tim Mcgraw - Over And Over Again tab

Tim Mcgraw ft. Nelly
Over and Over Again

Tabbed by: FenderStrat21
Im pretty sure this is right. let me know if it isnt


             ----------------guitar1-----------------------

Intro/Verse/Chorus:
   G
e------------------------------------------------|
B------------------------------------------------|
G------------------------------------------------|
D--------4h5--5p4----------------4h5--5p4--------|
A------5-----------5----------5-----------5------|
E----3----------------------3--------------------|

   Em
e-----------------------------------------------|
B-----------------------------------------------|
G-----------------------------------------------|
D-------5p4---4---5----------5p4---4---5--------|
A----5------5---5---------5------5---5----------|
E--0--------------------0-----------------------|

Play throughout entire song


             ----------------guitar2--------------------------

Chorus:

cause its all in my head  i think about it over and over again
e--------------10------------------------------------------|
B-----------8-----10------------------------10p8--10p8--8--|
G----7-h-9-------------------------------------------------|
D----------------------------------------------------------|
A----------------------------------------------------------|
E----------------------------------------------------------|

and i cant keep picturing you with him, and it hurts so bad
e----------------------------------------------------------|
B------10b*-------------------------------10--10p8---------|
G----------------------------------------------------------|
D----------------------------------------------------------|
A----------------------------------------------------------|
E----------------------------------------------------------|
* bend 2 whole steps

1st Verse:


i cant wait to see you  wanna see if you still got that look in your eye


that one you had for me  before we said our good bye's
e----------------------------------------------------------|
B-----10b*-------------10---10p8---------------------------|
G----------------------------------------------------------|
D----------------------------------------------------------|
A----------------------------------------------------------|
E----------------------------------------------------------|

and its a shame that we gotta spend our time being mad about the same things


over and over again  (about the same things)  over and over again
e----------------------------------------------------------|
B----10p8--10p8--8--------------------------10p8-10p8---8--|
G----------------------------------------------------------|
D----------------------------------------------------------|
A----------------------------------------------------------|
E----------------------------------------------------------|


pre chorus:

  G                      D                Em

I think she's leavin. Oh, she's leavin. I dont know what

              C
else to do .I cant go on not lovin you


Chorus:


2nd Verse: same as 1st

pre chorus:

Chorus:


The chords for when tim sings after the verse and chorus are
the same as the pre chorus
Tap to rate this tab
# A B C D E F G H I J K L M N O P Q R S T U V W X Y Z