Song name
# A B C D E F G H I J K L M N O P Q R S T U V W X Y Z

Tim Mcgraw - Cant Be Really Gone chords

Highlighted       Show chord diagrams
Can't Be Really Gone
Tim McGraw
CD: All I Want
Track 3

Tabbed by Neil Crane

Intro:
F   Bb   C          F          Bb        C
------------13-12--10-8------5-6--8-6--5---|
-------------------------6-8-------------8-|
-------------------------------------------|
-------------------------------------------|
-------------------------------------------|
-------------------------------------------|

    F                               Bb                 C
Her hat is hanging by the door, the one she bought in Mexico
   F                                            Bb               C
It blocked the wind, it stopped the rain, she'd never leave that one
        Bb              C F
So, she can't be really gone

    F                                      Bb                     C
The shoes she bought on Christmas Eve, she laughed and said they called her name
     F                                     Bb               C
It's like they're waiting in the hall, for her to slip them on
        Bb              C F
So, she can't be really gone

Dm                                  C
 I don't know when she'll come back, she must intend to come back
Bb                         F
 I've seen the error of my ways
Dm                           C
 Don't waste the tears on me, what more proof do you need
     Bb              C
Just look around the room
   Bb             C
So much of her remains

    F                             Bb               C
Her book is lying on the bed, the two of hearts to mark her page
    F                           Bb             C
Now who could ever walk away at chapter twenty-one
        Bb              C F
So, she can't be really gone

Solo:
F          Bb                        C
------5-6-6/8-8------8/10--8--6-5-6-6/8------10/13-12--13-|
--6-8------------6-6---------------------5-5--------------|
----------------------------------------------------------|
----------------------------------------------------------|
----------------------------------------------------------|
----------------------------------------------------------|

     Bb               C
Just look around this room
   Bb             C
So much of her remains

    F                             Bb               C
Her book is lying on the bed, the two of hearts to mark her page
    F                              Bb             C
Now who could ever walk away, with so much left undone
        Bb              C F
So, she can't be really gone
                            (lead fill played of F chord)
                            -13-12--8-10-|
                            -------------|
                            -------------|
                            -------------|
                            -------------|
                            -------------|
        Bb              C F
So, she can't be really gone

Outro:
 F   Bb   C          F       Bb         
   F
------------10-8-5h6-8-----5-6--8-6--5---------|
-------------------------8--------------8------|
-----------------------------------------------|
-----------------------------------------------|
-----------------------------------------------|
-----------------------------------------------|
Tap to rate this tab
# A B C D E F G H I J K L M N O P Q R S T U V W X Y Z