Song name
# A B C D E F G H I J K L M N O P Q R S T U V W X Y Z

Tim Mcgraw - Please Remember Me tab

When all our tears have reached the sea
--------------|
--------------|
---3/5--6-----|
--------------|
--------------|
--------------|
Part of you will live in me
--------------|
--------------|
--5/6--8------|
--------------|
--------------|
--------------|
Way down deep inside my heart
------------------|
------------------|
--6(8)6--5(6)5--3-|
------------------|
------------------|
------------------|
the days keep coming without fail
--------------|
--------------|
--------------|
--6/8\6-------|
--------------|
--------------|
A new wind is gonna find your sail
-----------------|
-----------------|
-------9----9/11-|
--6/10---10------|
-----------------|
-----------------|
Thats where your journey starts
---------|
---------|
--10\6---|
---------|
---------|
---------|
You'll find better love
--------------|
--------------|
--5-6-5-6-5\3-|
--------------|
--------------|
--------------|
Deep as the river runs
---------|
-------9-|
--8/10---|
---------|
---------|
---------|
Pleaseeeeeeeeeeeeeeeeeeeeeeeeeeeeeeee
--------|
--------|
-10-----|
--------|
--------|
--------|
Remember
--------|
--------|
---10\8-|
--------|
--------|
--------|
Meee
--------|
--------|
-6/8----|
--------|
--------|
--------|
Just like the waves down by the shore
-----------------|
-----------------|
------6-8/10\8-6-|
--6-8------------|
-----------------|
-----------------|
Out on this brave new world we seek
-----------------|
-----9---9/11\9--|
--10---10--------|
-----------------|
-----------------|
-----------------|
And I can see you on the top
--------------------------------|
--9-11/13-14-13-14/16-14-16/18~-|
--------------------------------|
--------------------------------|
--------------------------------|
--------------------------------|
You'll find better love
--------------|
--------------|
--5-6-5-6-5\3-|
--------------|
--------------|
--------------|
Deep as the river runs
---------|
-------9-|
--8/10---|
---------|
---------|
---------|
Pleaseeeeeeeeeeeeeeeeeeeeeeeeeeeeeeee
--------|
--------|
-10-----|
--------|
--------|
--------|
Remember
--------|
--------|
---10\8-|
--------|
--------|
--------|
Meee
--------|
--------|
-6/8----|
--------|
--------|
--------|
Remember me when your out walkin
--------------|
--------------|
---3/5--6-----|
--------------|
--------------|
--------------|
When the snow falls high outside your door
--------------|
--------------|
--5/6--8------|
--------------|
--------------|
--------------|
Late at night when your not sleepin
------------------|
------------------|
--6(8)6--5(6)5--3-|
------------------|
------------------|
------------------|
You'll find better love
--------------|
--------------|
--5-6-5-6-5\3-|
--------------|
--------------|
--------------|
Deep as the river runs
---------|
-------9-|
--8/10---|
---------|
---------|
---------|
Pleaseeeeeeeeeeeeeeeeeeeeeeeeeeeeeeee
--------|
--------|
-10-----|
--------|
--------|
--------|
Remember
--------|
--------|
---10\8-|
--------|
--------|
--------|
Meee
--------|
--------|
-6/8----|
--------|
--------|
--------|
Tap to rate this tab
 
# A B C D E F G H I J K L M N O P Q R S T U V W X Y Z