Song name
# A B C D E F G H I J K L M N O P Q R S T U V W X Y Z

Tim Mcgraw - Please Remember Me tab

When all our tears have reached the sea
----------------|
----------------|
--1-3-5-6-5-3\1~|
----------------|
----------------|
----------------|

Part of you will live in me
------------------|
----------9-------|
-5-6-8/10---10-8\6|
------------------|
------------------|
------------------|

Way down deep inside my heart
-------------------|
-------------------|
---------8^(10)8-6~|
-----6-8-----------|
-6-8---------------|
-------------------|

The days keep coming without fail
---------------9h11p9-11^(13)-9~|
-----------9h11-----------------|
-------8h10---------------------|
-8h9h10-------------------------|
--------------------------------|
--------------------------------|

New wind is gonna find your sail
---------|
---------|
-8/10\8-6|
---------|
---------|
---------|

Thats where your journey starts (Start this move into the chorus, next move starts with 
of the 11th fret)
----------------------|
----------------------|
-3-3-5-5-6-6-8-8-10-10|
----------------------|
----------------------|
----------------------|

Youll find better Love
------------------9-11^-11^|
--------------9-11---------|
-6-6-8-8-10-10-------------|
---------------------------|
---------------------------|
---------------------------|

Strong has It ever was, deep as the river runs, warm as the mornin sun
-11^-9h11p9---------------------------------------------------------|
------------11p9h11^-9-11^-11^-11^-9h11p9---------------------------|
------------------------------------------10\8-6-8^-6----6h8p6h8^-8^|
------------------------------------------------------6h8-----------|
--------------------------------------------------------------------|
--------------------------------------------------------------------|

Please Remember
---------------|
-6^-6^-6^-6^-6^|
-8^-8^-8^-8^-8^|
---------------|
---------------|
---------------|

Me
-----|
-----|
-^8-6|
-----|
-----|
-----|

Just like the waves down by the shore
---------------------|
-11-11-11p9---------9|
------------10\8/10--|
---------------------|
---------------------|
---------------------|

Out on this brave world you see
----------------|
----------------|
----------------|
-------13-15-15^|
-13-15----------|
----------------|

Oh the valley and peaks, Oh i cant see you on the tops
------------------------------------------9-11p9---11p9----11p9---*11p9h|
-------------------------------------9-11--------11-----11------11------|
-----------------3-5-6-5-6-8-6-8^-10------------------------------------|
-----------3-5-6--------------------------------------------------------|
-----1-3/5--------------------------------------------------------------|
-1-3--------------------------------------------------------------------|

Youll find better Love
-9-11^-11^|
----------|
----------|
----------|
----------|
----------|

Strong has It ever was, deep as the river runs, warm as the mornin sun
-11^-9h11p9---------------------------------------------------------|
------------11p9h11^-9-11^-11^-11^-9h11p9---------------------------|
------------------------------------------10\8-6-8^-6----6h8p6h8^-8^|
------------------------------------------------------6h8-----------|
--------------------------------------------------------------------|
--------------------------------------------------------------------|

Please Remember
---------------|
-6^-6^-6^-6^-6^|
-8^-8^-8^-8^-8^|
---------------|
---------------|
---------------|

Me
-----|
-----|
-^8-6|
-----|
-----|
-----|

Remember Me when Your out walkin, When snow falls high outside your door, late at night 
your not sleeping, and moonlight falls across your floor, and i cant hurt you anymore
-----------------------------------------------------------------------------|
--------------------------------------------------------------------------9--|
----------3-5^-1-3-5-6-5-6/8-6-8^-6h8p6-5h6p5-3h5p3-1h3p1-1-3-5-6-5-6-8-10---|
-------3-5-------------------------------------------------------------------|
----3-5----------------------------------------------------------------------|
-3-6-------------------------------------------------------------------------|
(Continued solo)
------------------------------------------------------9h11p9h11p9h11p9h11p9~-|
-11-11^-11^-11^-9h11p9----------------------------9-11-----------------------|
-----------------------10\8------------------8h10^---------------------------|
---------------------------------------8h9h10--------------------------------|
--------------------------------8h9h10---------------------------------------|
----------------------------8h11---------------------------------------------|

(Continue solo)
-11-9-------------------------------------------------------------------------|
------11-9----9-------------------------3^-5^-6^-8^--10^-12^-13^-15^-18p15h18-|
-----------10---8-------8h10p8-8-10^-8--5^-7^-8^-10^-12^-14^-15^-17^----------|
------------------8h9h10------------------------------------------------------|
------------------------------------------------------------------------------|
------------------------------------------------------------------------------|
(End of Solo)
-p15h18p15h18p15-18^-18^|
------------------------|
------------------------|
------------------------|
------------------------|
------------------------|

Youll Find better love
-18p15--15--|
------18--15|
------------|
------------|
------------|
------------|

Strong as it ever was
------------------------|
------------------------|
---------15h17p15-17^-15|
-15p16p17---------------|
------------------------|
------------------------|

Deep as the River runs
--------------15h16p15h18p15h16p15-13-15|
---------16-18--------------------------|
-12-15/17-------------------------------|
----------------------------------------|
----------------------------------------|

Warm as the morning Sun
-13p11-----------------------------------------------------------------------|
------13p11---------------------------------------------------------------11-|
------------12\10----------------------------------------------------10h12---|
------------------12p11p10-----------------------------------10h11h12--------|
---------------------------12p11p10------------------10h11h12----------------|
------------------------------------12p11p10-10h11h12------------------------|

(continued part)
-----11h13|
-h13------|
----------|
----------|
----------|
----------|

Please Remember
----------------|
-^13-13^-13^-13^|
----------------|
----------------|
----------------|
----------------|

Me
---|
-11|
---|
---|
---|
---|
Tap to rate this tab
 
# A B C D E F G H I J K L M N O P Q R S T U V W X Y Z