Song name
# A B C D E F G H I J K L M N O P Q R S T U V W X Y Z

Tim Mcgraw - Real Good Man tab

-----------------------------------------------------------------------------
                             REAL GOOD MAN Ė Tim McGraw
-----------------------------------------------------------------------------
Tabbed by
Cody Bruce
Email
cbruce92@live.com

Tuning: Drop D                                       Chords
                                                    
Rhythm Riff                                                 G   A   D   C   B
e|----------------------------------|           e|---0---0---0---0---0---|
B|-----3------3---------------------|           B|---3---2---3---3---0---|
G|-----2------2-------------3~~~~~--|           G|---0---2---2---0---4---|
D|--0------------3^--0------2~~~~~--|           D|---0---2---0---2---4---|
A|--------3^------------3^----------|           A|---0---0---X---3---2---|
D|----------------------------------|           D|---5---X---X---X---X---|

Then...
e|----------------------------------|
B|--------------------3\------------|
G|--------------------2\------------|
D|--------------------0\------------|
A|--0h2--3--2-----------------------|
D|-------------5--3-----------------|

Girl, youíve never known no one like me.
e|----------------------------------|
B|-----3------3---------------------|
G|-----2------2-------------3~~~~~--|
D|--0------------3^--0------2~~~~~--|
A|--------3^------------3^----------|
D|----------------------------------|

Up there in your high society.
(Rhythm Riff)
 G
They might tell you Iím no good.
 G
Girl, they need to understand........Just who I am...
e|--------------------------------------------------------------------------|
B|-----3------3-------------------------------------------------------------|
G|-----2------2-------------3~~~~~------------------------------------------|
D|--0------------3^--0------2~~~~~------------------------------------------|
A|--------3^------------3^------------------------------3--2--1-------------|
D|--------------------------------------------------------------------------|

A
I may be a real bad boy

But baby Iím a real good man.
e|------------------------------------------------------|
B|-----------------------3------3-------------3~~~~~----|
G|-----------------------2------2-------------2~~~~~----|
D|--------------------0------------3^--0----------------|
A|--0h2--3--2---------------3^------------3^------------|
D|-------------5--3-------------------------------------|

I may drink too much and play too loud
(Rhythm Riff)
Hang out with a rough and rowdy crowd
(Rhythm Riff)
G
That donít mean I donít respect
G
My momma or my Uncle Sam..........Yes, Sir. Yes, Maíam.
(Rhythm Riff)
A
I may be a real bad boy

But baby Iím a real good man.
e|--------------------------------------------------------|
B|-----------------------3------3-------------3~~~~~3\----|
G|-----------------------2------2-------------2~~~~~2\----|
D|--------------------0------------3^--0------------0\----|
A|--0h2--3--2---------------3^------------3^--------------|
D|-------------5--3---------------------------------------|


I might have a reckless streak
                     C    G  
At least a country mile wide
 D
If your gonna run with me
                 C     G
Itís gonna be a wild ride
 B
When it comes to loviní you
 G                D
Iíve got velvet hands
           B              B
And Iíll show you how a real bad boy
A          G
Can be a real good man
(Rhythm Riff)

(Solo Ė Coming Soon!)

I take all the good times I can get
(Rhythm Riff)
Iím too young for growiní up just yet
(Rhythm Riff)
 G
Ainít much I can promise you
 G
Cept to the best I can...............Iíll be damned.
e|--------------------------------------------------------------------------|
B|-----3------3-------------------------------------------------------------|
G|-----2------2-------------3~~~~~------------------------------------------|
D|--0------------3^--0------2~~~~~------------------------------------------|
A|--------3^------------3^------------------------------3--2--1-------------|
D|--------------------------------------------------------------------------|

A
I may be a real bad boy

Aww, but baby Iím a real good man. 
e|------------------------------------------------------|
B|-----------------------3------3-------------3~~~~~----|
G|-----------------------2------2-------------2~~~~~----|
D|--------------------0------------3^--0----------------|
A|--0h2--3--2---------------3^------------3^------------|
D|-------------5--3-------------------------------------|

Yes I am.
e|---------------------------------------------------|
B|-------------------------------------3~~~~---------|
G|-------------------------------------2~~~~---------|
D|-------------------------------------0~~~~---------|
A|--0---2/3\2--0-------------------------------------|
D|----------------5--3--1--1/3--1/3------------------|



************************************

| /   slide up
| \   slide down
| h   hammer-on
| p   pull-off
| ~   vibrato
| x   Mute note
| ^   Bend
************************************
Tap to rate this tab
# A B C D E F G H I J K L M N O P Q R S T U V W X Y Z