Song name
# A B C D E F G H I J K L M N O P Q R S T U V W X Y Z

Tim Mcgraw - Truck Yeah tab

-------------------------------------------------------------------------------
                             TRUCK YEAH - Tim McGraw
-------------------------------------------------------------------------------
Tabbed by: NCFencer

Tuning: Drop D

Main Riff/Intro
e|---------------------------------------------------------------------------|
B|---------------------------------------------------------------------------|
G|---------------------------------------------------------------------------|
D|---7--6--5-3-0----7--6---3-5-----------------------------------------------|
A|-s5--5--5-------s5--5----3-5-----------------------------------------------|
E|-------------------------3-5-----------------------------------------------|

e|---------------------------------------------------------------------------|
B|---------------------------------------------------------------------------|
G|---------------------------------------------------------------------------|
D|---7--6--5-3-0------------3-0----------5-3---------------------------------|
A|-s5--5--5--------0-3-5-0-------0-3-5-0-------------------------------------|
E|---------------------------------------------------------------------------|

Chorus
e|---------------------------------------------------------------------------|
B|---------------------------------------------------------------------------|
G|-5--7~---5--7~---5--7~-----------------------------------------------------|
D|-5--7~---5--7~---5--7~-----------------------------------------------------|
A|-3--5~---3--5~---3--5~---3-2-0---------------------------------------------|
E|-------------------------------5-------------------------------------------|

e|---------------------------------------------------------------------------|
B|----------------------------------------3----------------------------------|
G|-5--7~---5--7~---5--7~---------------5--2----------------------------------|
D|-5--7~---5--7~---5--7~---------------5--0----------------------------------|
A|-3--5~---3--5~---3--5~---3-2-0-------3--0----------------------------------|
E|-------------------------------5-3------0----------------------------------|



************************************

| /   slide up
| \   slide down
| h   hammer-on
| p   pull-off
| ~   vibrato
| +   harmonic
| x   Mute note
| b   Bend
| pb  Pre-bend
| br  Bend release
| pbr Pre-bend release
| brb Bend release bend

************************************
Tap to rate this tab
# A B C D E F G H I J K L M N O P Q R S T U V W X Y Z