Song name
# A B C D E F G H I J K L M N O P Q R S T U V W X Y Z

Tim Mcgraw - Better Than I Used To Be tab

-------------------------------------------------------------------------------
                Better Than I Used To Be - Tim McGraw
-------------------------------------------------------------------------------
Tabbed by:Caleb99


Tuning: Standard

Capo 3rd Fret


Above the tab I will name the chord and in the (xx) will be the chord shape.
I WILL NOT REPEAT CHORDS I PREVIOUSLY NAMED.

I do not have all the fancy country lead stuff but this is really if youd play alone.
You'd want to do the chords right. Plus this song is good practice for some chord switches
if its been awhile since you played and its just a good song.


Its kind of just a slow strum thing but you can add more style to it if you want
and its not hard to make your own little picking pattern for the song just keep the
chords together and let passion take over.

Intro
      F(D)            Csus(Asus)
e|----2---2---2---2---0---0---0--|
B|----3---3---3---3---3---3---3--|
G|----2---2---2---2---0---0---0--|
D|----0---0---0---0---2---2---2--|
A|--------------------0---0---0--|
E|-------------------------------|


Verse 
                      A/C#(C/E)       Dm(Bm)          A#(G)
e|----2---2---2---2---0---0---0---0-----------0---0---3---3---3---3----------|
B|----3---3---3---3---2---2---2---2---3---3---3---3---3---3---3---3----------|
G|----2---2---2---2---2---2---2---2---4---4---0---0---0---0---0---0----------|
D|----0---0---0---0---2---2---2---2---4---4---2---2---0---0---0---0----------|
A|--------------------4---4---4---4---2---2---0---0---2---2---2---2----------|
E|----------------------------------------------------3---3---3---3----------|

e|----2---2---2---2---0---0---0---0-----------0---0---3---3---3---3----------|
B|----3---3---3---3---2---2---2---2---3---3---3---3---3---3---3---3----------|
G|----2---2---2---2---2---2---2---2---4---4---0---0---0---0---0---0----------|
D|----0---0---0---0---2---2---2---2---4---4---2---2---0---0---0---0----------|
A|--------------------4---4---4---4---2---2---0---0---2---2---2---2----------|
E|----------------------------------------------------3---3---3---3----------|
      Gm7(Em7)
e|----0---0---0---0---3--|
B|----3---3---3---3---3--|
G|----0---0---0---0---0--|
D|----2---2---2---2---0--|
A|----2---2---2---2---2--|
E|----0---0---0---0---3--|


Chorus
                              C(A)
e|----2---2---2---2---3---3---0---0---2---2---2---2---3---3---0---0----------|
B|----3---3---3---3---3---3---2---2---3---3---3---3---3---3---2---2----------|
G|----2---2---2---2---0---0---2---2---2---2---2---2---0---0---2---2----------|
D|----0---0---0---0---0---0---2---2---0---0---0---0---0---0---2---2----------|
A|--------------------2---2---0---0-------------------2---2---0---0----------|
E|--------------------3---3---------------------------3---3------------------|
                              F/A(D/F#)
e|------------0---0---3---3-----------0---0---0-------3---3---0---0----------|
B|----3---3---3---3---3---3---3---3---3---3---3---3---3---3---2---2----------|
G|----4---4---0---0---0---0---2---2---0---0---0---2---0---0---2---2----------|
D|----4---4---2---2---0---0---0---0---2---2---2---0---0---0---2---2----------|
A|----2---2---0---0---2---2---0---0---2---2---2---0---2---2---0---0----------|
E|--------------------3---3---2---2---0---0---0---2---3---3------------------|

e|----2---2---2---2---0---0---0--|
B|----3---3---3---3---3---3---3--|
G|----2---2---2---2---0---0---0--|
D|----0---0---0---0---2---2---2--|
A|--------------------0---0---0--|
E|-------------------------------|

Verse 2

e|----2---2---2---2---0---0---0---0-----------0---0---3---3---3---3----------|
B|----3---3---3---3---2---2---2---2---3---3---3---3---3---3---3---3----------|
G|----2---2---2---2---2---2---2---2---4---4---0---0---0---0---0---0----------|
D|----0---0---0---0---2---2---2---2---4---4---2---2---0---0---0---0----------|
A|--------------------4---4---4---4---2---2---0---0---2---2---2---2----------|
E|----------------------------------------------------3---3---3---3----------|

e|----2---2---2---2---0---0---0---0-----------0---0---0-------3---0----------|
B|----3---3---3---3---2---2---2---2---3---3---3---3---3---3---3---3----------|
G|----2---2---2---2---2---2---2---2---4---4---0---0---0---2---0---0----------|
D|----0---0---0---0---2---2---2---2---4---4---2---2---2---0---0---2----------|
A|--------------------4---4---4---4---2---2---0---0---2---0---2---0----------|
E|----------------------------------------------------0---2---3--------------|


Chorus 2

e|----2---2---2---2---3---3---0---0---2---2---2---2---3---3---0---0----------|
B|----3---3---3---3---3---3---2---2---3---3---3---3---3---3---2---2----------|
G|----2---2---2---2---0---0---2---2---2---2---2---2---0---0---2---2----------|
D|----0---0---0---0---0---0---2---2---0---0---0---0---0---0---2---2----------|
A|--------------------2---2---0---0-------------------2---2---0---0----------|
E|--------------------3---3---------------------------3---3------------------|
                              
e|------------0---0---3---3-----------0---0---0-------3---3---0---0----------|
B|----3---3---3---3---3---3---3---3---3---3---3---3---3---3---2---2----------|
G|----4---4---0---0---0---0---2---2---0---0---0---2---0---0---2---2----------|
D|----4---4---2---2---0---0---0---0---2---2---2---0---0---0---2---2----------|
A|----2---2---0---0---2---2---0---0---2---2---2---0---2---2---0---0----------|
E|--------------------3---3---2---2---0---0---0---2---3---3------------------|

Break

e|----3---3---2---2---0---0-------0---3---3---2---2---0----------------------|
B|----3---3---3---3---2---2---3---2---3---3---3---3---2----------------------|
G|----0---0---2---2---2---2---4---2---0---0---2---2---2----------------------|
D|----0---0---0---0---2---2---4---2---0---0---0---0---2----------------------|
A|----2---2-----------0---0---2---0---2---2-----------0----------------------|
E|----3---3---------------------------3---3----------------------------------|

Chorus 3

e|----2---2---2---2---3---3---0---0---2---2---2---2---3---3---0---0----------|
B|----3---3---3---3---3---3---2---2---3---3---3---3---3---3---2---2----------|
G|----2---2---2---2---0---0---2---2---2---2---2---2---0---0---2---2----------|
D|----0---0---0---0---0---0---2---2---0---0---0---0---0---0---2---2----------|
A|--------------------2---2---0---0-------------------2---2---0---0----------|
E|--------------------3---3---------------------------3---3------------------|
                              
e|------------0---0---3---3-----------0---0---0-------3---3---0---0---2------|
B|----3---3---3---3---3---3---3---3---3---3---3---3---3---3---2---2---3------|
G|----4---4---0---0---0---0---2---2---0---0---0---2---0---0---2---2---2------|
D|----4---4---2---2---0---0---0---0---2---2---2---0---0---0---2---2---0------|
A|----2---2---0---0---2---2---0---0---2---2---2---0---2---2---0---0----------|
E|--------------------3---3---2---2---0---0---0---2---3---3------------------|

The END


************************************

| /   slide up
| \   slide down
| h   hammer-on
| p   pull-off
| ~   vibrato
| +   harmonic
| x   Mute note
| b   Bend
| pb  Pre-bend
| br  Bend release
| pbr Pre-bend release
| brb Bend release bend

************************************
Tap to rate this tab
# A B C D E F G H I J K L M N O P Q R S T U V W X Y Z