Song name
# A B C D E F G H I J K L M N O P Q R S T U V W X Y Z

Tim Mcgraw - You Get Used To Somebody tab

tim mcgraw- you get used to somebody


i'm pretty sure with this tab...it's probably right...

-------------------------------------------------------------|
-------------------------------------------------------------|
--------------------------------------------14-15----14-15---|
------------------------------------------15-----------------|
-13-13/15/17-13---13-13/15-17\15-15--13/17-------------------|
-------------------------------------------------------------|

---------------------------------------------------18---20-20^R--18-17-18--|
------------18--------------------------------15-18------------------------|
-17^-17^-------17^R^RP15--15-------------15-17-----------------------------|
------------------------17----------15-17----------------------------------|
----------------------------------17---------------------------------------|
---------------------------------------------------------------------------|
Tap to rate this tab
# A B C D E F G H I J K L M N O P Q R S T U V W X Y Z