Guitaretab - guitar tabs
Song name
# A B C D E F G H I J K L M N O P Q R S T U V W X Y Z

Tim Minchin - Inflatable You tab

Highlighted       Show chord diagrams
-------
-NOTE:-
-------
Okay this is both my first tab and a conversion from piano to guitar. So it's a
little s**t, I believe is the word, but it is close to correct... well I did
change some of the chords, but, meh it sounds pretty good.

-------------------------------------------------------------------------------
			     Inflatable You - Tim Minchin
-------------------------------------------------------------------------------
Tabbed by: Luke (Noa)
Email: lukearc@hotmail.com

Tuning: eBGDAE (standard tuning)

Strumming patterns:
d=down
u=up
WOW! AMAZING!!!

D strumming pattern in verses

    d  d  u  d  d  u  d  d  u  d  d  u
e|--2--2--0--2--2--0--2--2--0--2--2--0--|
B|--3--3--3--3--3--3--3--3--3--3--3--3--|
G|--2--2--0--2--2--0--2--2--0--2--2--0--|
D|--------------------------------------|
A|--------------------------------------|
E|--------------------------------------|

A strumming pattern in verses
    d  d  u  d  d  u  d  d  u  d  d  u
e|--------------------------------------|
B|--2--2--2--2--2--2--2--2--2--2--2--2--|
G|--2--2--0--2--2--0--2--2--0--2--2--0--|
D|--2--2--2--2--2--2--2--2--2--2--2--2--|
A|--------------------------------------|
E|--------------------------------------|

A to Am for last line in verse
    all downward strums
e|------------------------------------|
B|--2--2--2--2--1------2--2--2--2--1--|
G|--2--2--2--2--2------2--2--2--2--2--|
D|--2--2--2--2--2------2--2--2--2--2--|
A|------------------------------------|
E|------------------------------------|

Strumming pattern for chorus/outro
ddududud


////////////////////////////////////
Verse 1
come in with strumming pattern \/here
                               d
Your love for me is not debatable
                               A
Your sexual appetiteís insatiable
                             d
You never ever make me waitable
             A          Am      A      Am
Delectable, inflatable you.

                                  d
You donít have problems with your weight at all
                            A
You never steal food off my plate at all
                      d
I never have to masturbate at all
             A          Am      A      Am
Unstoppable, inflatable you.

                       d
You never seem to menstruate at all
                             A
So youíre not angry when Iím late at all
                       d
I feel permanently felatable
            A          Am      A      Am
Unpoppable, inflatable you.
[ Tab from: http://www.guitaretab.com/t/tim-minchin/108762.html ]
Chorus 1
     G                                   d
With you in my arms I feel we could just fly away
G                                                   d
With the right kind of gas I might even try it some day
        G                                       d
In this ocean of life Iím never afraid we might drown
A                           E
We could just float forever whatever the weather
Am                     A        Am
Whenever my inflatable loverís around.

Verse 2
Your thighs and buttocks are so holdable
You always do what you are toldable
And if we argue you just foldable
Controllable consolable you.

My mates all reckon you are suitable
I took you Ďround to watch the footable
And Steve and Gary said youíre rootable
Commutable, refutable you.

Youíre never sensitive or tickley
When I rub you my skin goes prickerly
Itís know an static electricity
Felicity when Iím kissing you.

Chorus 2
Your skin is so smooth Ė I couldnít afford you with hair
You have all the holes real girls have got plus one for the air
Your problems are simple, I donít need my Masters in Psych
To know if you get down I just perk you right up
With a couple of squirts from the pump off my bike.

Verse 3
You never wake up when I snore at all
A trait which I find quite adorable
You have a box and you are storable
Ignorable, back-doorable you.

Any sexual positionís feasible
Although you donít bend at the knees at all
Your hooters are so firm and squeezable
Increasable, un-creasable you.

You donít complain about my hairy back
Or Ďbout the inches that downstairs I lack
Youíre not disgusted by my furry crack
Burt Bacharach, Jack Kerouac ooo.

Now birth control is not an issue
I clean it all up with a tissue
I bet my jealous friend all wish you
Were insatiably inflatably theirs.

///////////////////////////////////////////////////////////////
//Solo done roughly from memory.                             //
//Just mess around with those rough notes and chuck in some  //
//bends as it goes out of tune further in.                   //
///////////////////////////////////////////////////////////////

Solo                         x2
e|----------------------------| |---------------------------------|
B|----------------------------| |---------------------------------|
G|--9-8-6-6----8--8--6--5--4--| |-----4--4--5----/9--8------9--8--|
D|----------------------------| |---------------------------------|
A|----------------------------| |---------------------------------|
E|----------------------------| |---------------------------------|

Second guitar or Bass line during solo
e|---------------------------|
B|---------------------------|
G|---------------------------|
D|---------------------------|
A|---------------------------|
E|--1--4--8-6-8--6--4--3--0--|

Outro
Am
Donít let me down.
Am
Donít let me down.
Am
Donít let me down.
Am Am Am    Am  Am       E   Am E
And I wonít let you      dow-ow-own. 


| /  slide up
| \  slide down
| h  hammer-on
| p  pull-off
| ~  vibrato
| +  harmonic
| x  Mute note

Enjoy!
===============================================================================
Related for Inflatable You tab