Song name
# A B C D E F G H I J K L M N O P Q R S T U V W X Y Z

Tim Minchin - So Fucking Rock tab

So Fucking Rock

e --------   -----.-.-   -----.-.-   --------|
b --------   -----.-.-   -----.-.-   --------|
g 7-5-5567   --5-5.6.7   --5-5.6.7   --------|
d --------   -7-7-.-.-   -7-7-.-.-   --------|
a --------   -----.-.-   -----.-.-   --------|
e --------   -----.-.-   -----.-.-   --------|
I am so fucking rock I am so goddamn rock I am so motherfucking rock
e --------  --------  --------  --------|
b --------  --------  --------  --------|
g 7755----  -5------  --------  --5-----|
d ----75-7  ---7----  55------  77-7----|
a ------8-  -------8  --885588  --------|
e --------  --------  --------  --------|
If you came expecting a burlesque show with girls in nipple tassels and a flying trapeze
e --------  --------  --------  --------|
b --------  --------  --------  --------|
g 7755----  -5------  --------  --5-----|
d ----75-7  ---7----  55------  7--7----|
a ------8-  -------8  --88558-  --------|
e --------  --------  --------  --------|
Sorry but I'm going to have to disappoint you. You should have read your program more carefully
e --------   -----.-.-   -----.-.-   --------|
b --------   -----.-.-   -----.-.-   --------|
g 7-5-5567   --5-5.6.7   --5-5.6.7   --------|
d --------   -7-7-.-.-   -7-7-.-.-   --------|
a --------   -----.-.-   -----.-.-   --------|
e --------   -----.-.-   -----.-.-   --------|
I am so fucking rock I am so goddamn rock I am so motherfucking rock
e --------  --------  --------  --------|
b --------  --------  --------  --------|
g --------  --------  --------  --------|
d -------7  --------  -------7  --------|
a 88888-8-  7777-557  8888-88-  7777-5--|
e --------  --------  --------  --------|
I work very hard for my rock n roll hair, I get it chemic ally straightened and I style 
for hours
e --------  --------  --------  --------|
b --------  --------  --------  --------|
g --------  --------  --------  --------|
d -------7  --------  -------7  --------|
a 88888-8-  7777-557  8888888-  7777-5--|
e --------  --------  --------  --------|
I work very hard for a rock n roll face, I've got the kooky contact lenses and
the girly mascara.  But
e --------  --------  --------  --------|
b --------  --------  --------  --------|
g --------  --------  --------  --------|
d 5-5-5---  --------  5-5-5577  --------|
a -8-8-857  --------  -8-8----  --------|
e --------  --------  --------  --------|
there is some-thing deeper in side Something that this mask cannot hide
e --------  --------  --------  --------|
b --------  --------  --------  --------|
g 4-4-4---  7-------  --------  --------|
d -7-7-7--  ---7----  4444467-  --------|
a --------  --------  --------  --------|
e --------  --------  --------  --------|
Something from a distance you'll see Some-thing fundamentally  me
e --------   -----.-.-   -----.-.-   --------|
b --------   -----.-.-   -----.-.-   --------|
g 7-5-5567   --5-5.6.7   --5-5.6.7   --------|
d --------   -7-7-.-.-   -7-7-.-.-   --------|
a --------   -----.-.-   -----.-.-   --------|
e --------   -----.-.-   -----.-.-   --------|
I am so fucking rock I am so goddamn rock I am so motherfucking rock
Tap to rate this tab
 
# A B C D E F G H I J K L M N O P Q R S T U V W X Y Z