Song name
# A B C D E F G H I J K L M N O P Q R S T U V W X Y Z

Tim Minchin - Prejudice tab

Hey this is my first attempt at writing tab so i hope it works out, this is just the 
that is used throughout the song after the first bit.

"only a ginger can call another ginger, ginger"

|-----------------|--------------------------------------------------------|
|-----------------|--------------------------------------------------------|
|-----------------|----------9-------------7--------------5----------------|
|-----------------|----------9-------------7--------------5----------------| X2
|----3----5---6---|---7--7---7---7--5--5---5---5---3--3---3---3---2-2-2----|
|-----------------|-----------------------------------------------------3-2|

then...
|-----------------|----------------------------------------------------------|
|-----------------|----------------------------------------------------------|
|-----------------|----------9-------------7--------------5------------------|
|-----------------|----------9-------------7--------------5------------------|
|----3----5---6---|---7--7---7---7--5--5---5---5---3--3---3---3---2-2-2-5-6--|
|-----------------|----------------------------------------------------------|

This riff repeats throughout the song and changes key somewhere, i'll update this tab 
i have worked it out
cheers, Nath Robinson
Tap to rate this tab
# A B C D E F G H I J K L M N O P Q R S T U V W X Y Z