Song name
# A B C D E F G H I J K L M N O P Q R S T U V W X Y Z

Tim Minchin - Peace Anthem For Palestine tab

Sorry for the strange format, used a tab creator and messed it up a bit in notepad. It 
still should make sense, I'm not 100% sure about the ending but it's adhering to the 
sheet music that I translated it from.


(h) Hammer On  (p) Pull Off

Standard Tuning

E|----------------------------------------------10--13----------|
B|--10--------------------------------------12------------------|
G|------9--------------9------------10--13----------------------|
D|---------10------10-----------12------------------------------|
A|-------------12-----------------------------------------------|
E|--------------------------------------------------------------|




E|--15--13--12--10------10-----|
B|------------------13---------|
G|-----------------------------|
D|-----------------------------|
A|-----------------------------|
E|-----------------------------|




E|--11--10h11p10---------------------------------------------------|
B|----------------13------10--12------------13--12--10-------------|
G|--------------------13--------------------------------10--9------|
D|-------------------------------------------------------------10--|
A|-----------------------------------------------------------------|
E|-----------------------------------------------------------------|



E|--------------------------------------------------|
B|--------------------------------------------------|
G|--------------------------------------------------|
D|--9--10--9------9------------9--10--9------9------|
A|------------12-------------------------12-----12--|
E|--------------------------------------------------|



E|-----------------------------------|
B|--------------------------------9--|
G|-------------10-------------10-----|
D|------9--12----------9--12---------|
A|--10-------------------------------|
E|-----------------------------------|



E|----------------------------------------------10--13------------|
B|--10--------------------------------------12--------------------|
G|------9--------------9------------10--13------------------------|
D|---------10------10-----------12--------------------------------|
A|-------------12-------------------------------------------------|
E|----------------------------------------------------------------|


E|--15--13--12--10------10-----|
B|------------------13---------|
G|-----------------------------|
D|-----------------------------|
A|-----------------------------|
E|-----------------------------|



E|--11--10h11p10---------------------------------------------------|
B|----------------13------10--12------------13--12--10-------------|
G|--------------------13--------------------------------10--9------|
D|-------------------------------------------------------------10--|
A|-----------------------------------------------------------------|
E|-----------------------------------------------------------------|



E|----------------------|
B|----------------------|
G|----------------------|
D|--9--10--9------9-----|
A|------------12-----11-|
E|----------------------|
Tap to rate this tab
 
# A B C D E F G H I J K L M N O P Q R S T U V W X Y Z