Song name
# A B C D E F G H I J K L M N O P Q R S T U V W X Y Z

Tim Minchin - Not Perfect chords

Highlighted       Show chord diagrams
I couldnt find a proper comprehensive and correct version 
of this tab, so I thought I'd make one.  Great song, 
and fairly easy to play. Enjoy.


           A         E         D         Dm

e|---------0---------0---------2---------1--------|
B|---------2---------0---------3---------3--------|
G|---------2---------1---------2---------2--------|
D|---------2---------2---------0---------0--------|
A|---------0---------2---------X---------X--------|
E|---------0---------0---------X---------X--------|


           A7      F#m sus4   F#m       D6         

e|---------0---------2---------2---------2--------|
B|---------2---------2---------2---------3--------|
G|---------0---------4---------2---------4--------|
D|---------2---------4---------4---------0--------|
A|---------0---------4---------4---------X--------|
E|---------0---------2---------2---------X--------|


           C#      F#m/Bflat   Bm       A/E         

e|---------4---------X---------2---------0--------|
B|---------6---------X---------3---------2--------|
G|---------6---------X---------4---------2--------|
D|---------6---------4---------4---------2--------|
A|---------4---------1---------2---------X--------|
E|---------4---------2---------2---------0--------|


         Bsus4       B            

e|---------2---------2--------------|
B|---------5---------4--------------|
G|---------4---------4--------------|
D|---------4---------4--------------|
A|---------2---------2--------------|
E|---------2---------2--------------|


I'd recommend picking it something like this:

      1       2       3       4

e|------------------------------------|
B|----2-------2-------2-------2-------|
G|----2-------2-------2-------2-------|
D|--------2-------2-------2-------2---|
A|----2-------------------------------|
E|------------------------------------|

      1       2       3       4

e|----------------------------0-------|
B|----0-------0-------0-------0-------|
G|----1-------1-------1-----------1---|
D|--------2-------2-------2-----------|
A|------------------------------------|
E|----0-------------------------------|


And so on...


                    Tim Minchin - Not Perfect 


             A
This is my Earth

        E
And I live in it

      D
It's one third dirt

     Dm
And two thirds water

          A
And it rotates and revolves through space

     A7
At rather an impressive pace

      D          Dm           A
And never even messes up my hair

       F#m sus4        F#m
And here's the really weird thing

      B sus4              B               
The force created by its spin

          D                   A            E
Is the force that stops the chaos flooding in

            F#m sus4     F#m
This is my Earth

          D6      D
And it's fine

       E                         C#         F#m      F#m/Bflat
It's where I spend the vast majority of my time

             Bm       D
It's not perfect

          A          A/E
But it's mine

            Bm        D   (D - D - D - A - D - a8)
It's not perfect



Tab by Brynn McCullagh

email:  brynnmccullagh [at] hotmal [dot] com
Tap to rate this tab
 
# A B C D E F G H I J K L M N O P Q R S T U V W X Y Z