Song name
# A B C D E F G H I J K L M N O P Q R S T U V W X Y Z

Tim Minchin - Lullaby tab

-------------------------------------------------------------------------------
                             Lullaby - Tim Minchin
-------------------------------------------------------------------------------
Tabbed by: Jellyman93
E-mail: joe_lildevil@hotmail.com

Tuning: Standard EADGBe

The introduction is simply the first 2 lines without the last bar
--> Hit the D (5 on the A string) in the last bar of the second line and stop.

This part is repeated a few times near the end, 
 as well as a couple of times between some verses.  
It also slightly accelerates as it repeats.  

Last line, the open A string i put in square brackets, play last time only.


  D                                                A
e|--9-10-9----------|--------------|--------------|---------------|
B|---------10-------|--------------|--------------|---------------|
G|------------11----|--6-7-6-------|--------------|---------------|
D|---------------12-|--------7-----|----------5-6-|--7------------|
A|------------------|----------9-5-|----5-7-9-----|---------------|
E|------------------|--------------|--9-----------|---------------|

                                                    D   
e|----------------|-----------------|--------------|--------------|
B|--8-10-8--------|-----------------|--------------|--------------|
G|---------9------|-----------------|--------------|--------------|
D|-----------11-7-|-----7-----------|--------------|------------3-|
A|----------------|--10---10-7\4----|----------3-4-|--5-4-5-6-7---|
E|----------------|---------------5-|--4-5-6-7-----|--------------|

  F#                                   Bm                               
e|-----------------|------14-12-10----|--9-10-9----------|--------------------|
B|------------11-9-|--7---------------|---------12-------|--------------------|
G|-----------------|------------------|------------11----|--------------------|
D|--4-6-8----------|------------------|---------------12-|--11-12-11----------|
A|-----------------|------------------|------------------|-----------14-------|
E|-----------------|------------------|------------------|--------------14-13-|

  E                                          A                    ***
e|--------------------|---------------------|--------------------|------------|
B|--------------------|---------------------|--------------------|------------|
G|--------------------|---------------------|--------------------|------------|
D|--------------------|--12-----------------|--------------14----|--15--------|
A|--------------14----|---------------16----|--12----16----------|-------[0]--|
E|--12----16----------|---------------------|--------------------|------------|
                                                                          ^
                                                                          |
                                                                [Last time only]


*** - some chord:
A aug 5?
Dm(maj7)/A?
Not even sure. Aaug5 sounds good.

Anyway, first tab and all that; let me know what you think.



************************************

| /   slide up
| \   slide down
| h   hammer-on
| p   pull-off
| ~   vibrato
| +   harmonic
| x   Mute note
| b   Bend
| pb  Pre-bend
| br  Bend release
| pbr Pre-bend release
| brb Bend release bend

************************************
Tap to rate this tab
 
# A B C D E F G H I J K L M N O P Q R S T U V W X Y Z